PrimaNota.ru - самый крупный в мире бесплатный архив песенных текстов, аккордов, табулатур и нот


Peer Gunt - Troubled Child - таба, видео

Регистрация Запомнить меня
Войти через:  Facebook Google Twitter Vk Yandex Mail.ru

Peer Gunt - Troubled Child - таба, видео

Печатать
Просмотров: 67
Уроки эстрадного вокала в Санкт-Петербурге
Tip: Use capo on the third fret 

Main Riff/Verse:
e:---------------------------------------------------------------------------|
B:---------------------------------------------------------------------------|
G:---------------------------------------------------------------------------|
D:-----8--5-----8-------------------8--5-----8-------------------------------|
A:-----5--5-----5-------------------5--5-----5-------------------------------|
E:--3--------3-----3--3--6--8----3--------3-----3--3--6--8-------------------|


Bridge1:
  ... and I say!
e:---------------------------------------------------------------------------|
B:---------------------------------------------------------------------------|
G:---------------------------------------------------------------------------|
D:----------------------------------8--5-----8-------------------8--5-----8--|
A:--10--10--9--8~-------------------5--5-----5-------------------5--5-----5--|
E:----------------8--8--7--6~----3--------3-----3--3--6--8----3--------3-----|



e:---------------------------------------------------------------------------|
B:---------------------------------------------------------------------------|
G:---------------------------------------------------------------------------|
D:-----------------------------------------------8--5-----8------------------|
A:---------------10--10--9--8~-------------------5--5-----5------------------|
E:3--3--6--8-------------------8--8--7--6~----3--------3-----3--3--6--8------|


Bridge2:
  ...gonna ride downtown
e:---------------------------------------------------------------------------|
B:---------------------------------------------------------------------------|
G:---------------------------------------------------------------------------|
D:---------------------------------------------------------------------------|
A:----12------10------12------10-----------------------12------10------12----|
E:----10------8-------10------8------------------------10------8-------10----|

                                                                      
Chorus:
  ...don't you mess with the troubled child
e:---------------------------------------------------------------------------|
B:---------------------------------------------------------------------------|
G:---------------------------------------------------------------------------|
D:-----------------------------------------------8--5-----8------------------|
A:-----------------------------------------------5--5-----5------------------|
E:-(6)----------------------------------------3--------3-----3--3--6--8--3---|
Добавлено: 21.04.2016
Другие материалы по этой песне:
  • Аккорды и текст

Страница создана 21.04.2016
http://primanota.ru/peer-gunt/troubled-child-chords.htm
Привет, Гость.
Предлагаем пройти революционный курс по гитаре.
Подарок от PrimaNota.Ru, забирай!