PrimaNota.ru - самый крупный в мире бесплатный архив песенных текстов, аккордов, табулатур и нот


Peer Gunt - Street 69 - таба, видео

Регистрация Запомнить меня
Войти через:  Facebook Google Twitter Vk Yandex Mail.ru

Peer Gunt - Street 69 - таба, видео

Печатать
Просмотров: 39
notation legend:      

/   - slide up
\   - slide down
~   - vibrato
b   - bend 1/4      
ho  - hammer on
po  - pull off

Intro/verse:

E ||--------------------------------||
B ||--------------------------------||
G#||.------------------------------.||
E ||.-0--0--3po0-5po3po0-3po0---0--.||
B ||--------------------------3-----||
E ||--------------------------------||


Bridge:

E |-----------------------------------------|
B |-3/5---3/5-5-----3/5-5-----3/5-5---------|
G#|-3/5---3/5-------3/5-------3/5-------5\--|
E |-------------5---------5---------5---5\--|
B |-----------------------------------------|
E |-----------------------------------------|


Chorus:
                        slow slide
E |-----------------------------------|
B |-/7---/7-7---------\/3   /   5-----|
G#|-/7---/7----7------\/3   /   5--5\-|
E |-/7---/7-------7---\/3   /   5--5\-|
B |-----------------------------------|
E |-----------------------------------|


Alternative verse:

E |------------------------------|------------------------------------|
B |------------------------------|------------------------------------|
G#|------------------------------|------------------------------------|
E |-0--0--3po0-5po3po0-3po0---0--|-0--0--3po0-5po3po0-3po0------------|
B |-------------------------3----|-------------------------3po0-------|
E |------------------------------|------------------------------3b~---|
Добавлено: 21.04.2016
Другие материалы по этой песне:
  • Аккорды и текст

Страница создана 21.04.2016
http://primanota.ru/peer-gunt/street-69-chords.htm
Привет, Гость.
Предлагаем пройти революционный курс по гитаре.
Подарок от PrimaNota.Ru, забирай!