PrimaNota.ru - самый крупный в мире бесплатный архив песенных текстов, аккордов, табулатур и нот


Peer Gunt - She Was Here For A Rocknroll - таба, видео

Регистрация Запомнить меня
Войти через:  Facebook Google Twitter Vk Yandex Mail.ru

Peer Gunt - She Was Here For A Rocknroll - таба, видео

Печатать
Просмотров: 66
Уроки эстрадного вокала в Санкт-Петербурге
notation legend:      

/   - slide up
\   - slide down
b   - bend
po  - pull off

Intro:
                                       8x
E |---||--------------------------------||
B |---||--------------------------------||
G#|---||.------------------------------.||
E |---||.-0----0-----0-------------3---.||
B |-5\||-------------------0--2/3-------||
E |-5\||-----3---0-3---0-3--------------||


Verse1:
                                   7X
E ||--------------------------------||-----------------|
B ||--------------------------------||-----------------|
G#||.------------------------------.||-----------------|
E ||.-0----0-----0-------------3---.||-0-----0-----0---|
B ||-------------------0--2/3-------||-----------------|
E ||-----3---0-3---0-3--------------||-----3---0-3-----|


Bridge1:

E |-------------------||--------------------------------||
B |---------5---------||--------------------------------||
G#|-/5---/5---5-------||.------------------------------.||
E |-/5--------5-------||.-0----0-----0-------------3---.||
B |-------------------||-------------------0--2/3-------||
E |-------------------||-----3---0-3---0-3--------------||

E |-------------------||--------------------------------||
B |---------5---------||--------------------------------||
G#|-/5---/5---5-------||.------------------------------.||
E |-/5--------5-------||.-0----0-----0-------------3---.||
B |-------------------||-------------------0--2/3-------||
E |-------------------||-----3---0-3---0-3--------------||

E |-------------|-----------------|------|-------------|
B |-/7-----7----|--/10------10----|--3---|--5-5---7-7--|
G#|-/7--/7------|--/10--/10-------|--3---|--5-5---7-7--|
E |-/7----------|--/10------------|--3---|--5-5---7-7--|
B |-------------|-----------------|------|-------------|
E |-------------|-----------------|------|-------------|


Break:

E |----------------------|
B |----------------------|
G#|----------------------|
E |-3-2-0----------------|
B |-------2--0-----------|
E |-------------3-2-0----|


Verse2: same as verse1

Bridge2: same as bridge2


Chorus1:

E ||--------------------|---------------||
B ||--/10-------10------|-/5------5-----||
G#||.-/10---/10---------|-/5---/5------.||
E ||.-/10----------10---|-/5--------5--.||
B ||--------------------|---------------||
E ||--------------------|---------------||

E |-----------------|------------|-------|
B |-/12---12--------|-10----8----|--5----|
G#|-/12-------12----|-10----8----|--5----|
E |-/12-------------|-10----8----|--5----|
B |-----------------|------------|-------|
E |-----------------|------------|-------|


Solo:

E ||------------------------|-----------------------|
B ||------------------------|-----------------------|
G#||.-----------------------|-----------------------|
E ||.----------------3b--0--|--------------------0--|
B ||------------------------|----------------3b-----|
E ||--0--0-0--3--0-0--------|-0--0-0--3--0-0--------|

E |-----------------------|-----------------------||
B |-----------------------|-----------------------||
G#|-----------------------|----------------------.||
E |----------------3b--0--|-5b--0--3b--0------0--.||
B |-----------------------|---------------3b------||
E |-0--0-0--3--0-0--------|-----------------------||

not sure about this
E ||----------------------------------------------|-------------------------------------------|
B ||----------------------------------------------|-------------------------------------------|
G#||.---------------------------------------------|-------------------------------------------|
E ||.-0--9po7po0-9po7po0-9po7po0--9po7po0-9po7po0-|-0-9po7po0-9po7po0-9po7po0-9po7po0-9po7po0-|
B ||----------------------------------------------|-------------------------------------------|
E ||----------------------------------------------|-------------------------------------------|

E |---------------------------------------|----------------------------------------||
B |---------------------------------------|----------------------------------------||
G#|---------------------------------------|---------------------------------------.||
E |-0--5po0-3po0-5po0-3po0-5po0-3po0-2po0-|-5po0 3po0-2po0-3po0-5po0-3po0-2po-3po-.||
B |---------------------------------------|----------------------------------------||
E |---------------------------------------|----------------------------------------||


Bridge3:

E |-------------|-----------------|------|-------------|
B |-/7-----7----|--/10------10----|--3---|--5-5---7-7--|
G#|-/7--/7------|--/10--/10-------|--3---|--5-5---7-7--|
E |-/7----------|--/10------------|--3---|--5-5---7-7--|
B |-------------|-----------------|------|-------------|
E |-------------|-----------------|------|-------------|


Chorus2:

E ||--------------------|---------------||
B ||--/10-------10------|-/5------5-----||
G#||.-/10---/10---------|-/5---/5------.||
E ||.-/10----------10---|-/5--------5--.||
B ||--------------------|---------------||
E ||--------------------|---------------||

repeat and fade out
Добавлено: 21.04.2016
Другие материалы по этой песне:
  • Аккорды и текст

Страница создана 21.04.2016
http://primanota.ru/peer-gunt/she-was-here-for-a-rocknroll-chords.htm
Привет, Гость.
Предлагаем пройти революционный курс по гитаре.
Подарок от PrimaNota.Ru, забирай!