PrimaNota.ru - самый крупный в мире бесплатный архив песенных текстов, аккордов, табулатур и нот


Peer Gunt - Liquere And Drugs - таба, видео

Регистрация Запомнить меня
Войти через:  Facebook Google Twitter Vk Yandex Mail.ru

Peer Gunt - Liquere And Drugs - таба, видео

Печатать
Просмотров: 30
notation legend:      
~   vibrato
                

Intro:

16x
E|------------------|
B|------------------|
G|---------2--------|
D|-------------4----|
A|-0--0--4----------|
E|------------------|


Verse:

6x
E|-------------------|
B|-------------------|
G|---------2---------|
D|-------------4-----|
A|-0--0--4-----------|
E|-------------------|


E|-------------------|--------------------|
B|-------------------|--------------------|
G|-------------------|--------------------|
D|---------2---------|---------2----------|
A|-------------4-----|-------------4------|
E|-0--0--4-----------|-0--0--4------------|


E|-------------------|--------------------|---------------------|
B|-------------------|--------------------|---------------------|
G|---------2---------|---------2----------|-2-------------------|
D|-------------4-----|-------------4------|--------3------------|
A|-0--0--4-----------|-0--0--4------------|--------3------------|
E|-------------------|--------------------|--------1------------|


E|-------------------|--------------------|
B|-------------------|--------------------|
G|---------2---------|--------------------|
D|-------------4-----|---------2----------|
A|-0--0--4-----------|-------------4------|
E|-------------------|-0--0--4------------|


E|-------------------|--------------------|
B|-------------------|--------------------|
G|---------2---------|---------2----------|
D|-------------4-----|-------------4------|
A|-0--0--4-----------|-0--0--4------------|
E|-------------------|--------------------|


Solo1:

E|-------------|----------------------|
B|-------------|----------------------|
G|-------------|-4b--4--2-----2-2-2---|
D|----2--------|-----------4----------|
A|-4-----------|----------------------|
E|-------------|----------------------|


E|---------------------|--------------------|
B|---------------------|--------------------|
G|-4b--4b--4b-4--2-----|-2--2--2--2--2--4~--|
D|------------------4--|--------------------|
A|---------------------|--------------------|
E|---------------------|--------------------|


E|-------------|------------|
B|-5b--5--2----|------------|
G|----------4--|-4b---------|
D|-------------|------2-----|
A|-------------|------------|
E|-------------|------------|


E|---------------|---------|
B|---------------|---------|
G|---------------|---------|
D|-4b--4po2------|---------|
A|------------2--|-2b------|
E|---------------|---------|


E|-----------------------|---------------|
B|-----------------------|---------------|
G|-4b--4b--4b--4--4b--4--|-2-------------|
D|-----------------------|-2-------------|
A|-----------------------|-0-------------|
E|-----------------------|---------------|
Добавлено: 21.04.2016
Другие материалы по этой песне:
  • Аккорды и текст

Страница создана 21.04.2016
http://primanota.ru/peer-gunt/liquere-and-drugs-chords.htm
Привет, Гость.
Предлагаем пройти революционный курс по гитаре.
Подарок от PrimaNota.Ru, забирай!