PrimaNota.ru - самый крупный в мире бесплатный архив песенных текстов, аккордов, табулатур и нот


Peer Gunt - Let Her In - таба, видео

Регистрация Запомнить меня
Войти через:  Facebook Google Twitter Vk Yandex Mail.ru

Peer Gunt - Let Her In - таба, видео

Печатать
Просмотров: 25
Intro:
e:---------------------------------------------------------------------------|
B:---------------------------------------------------------------------------|
G:--2-----------------------------2--2--2-----------------------------2--2---|
D:--2--------4p-2-----------------2--2--2--------4p-0-----------------2--2---|
A:--0--3p-0--------3p-0--3p-0-----0--0--0--3p-0--------3p-0--3p-0-----0--0---|
E:-----------------------------3-----------------------------------3---------|


       
e:---------------------------------------------------------------------------|
B:---------------------------------------------------------------------------|
G:---------------------------------------------------------------------------|
D:--2------------------------------------------------------------------------|
A:--2------------------------------------------------------------------------|
E:--0------------------------------------------------------------------------|


Verse1(With partial drums):                           
e:---------------------------------------------------------------------------|
B:---------------------------------------------------------------------------|
G:--2-----------------------------2--2---------------------------------------|
D:--2--------4p-2-----------------2--2---------------------------------------|
A:--0--3p-0--------3p-0--3p-0-----0--0---------------------------------------|
E:-----------------------------3---------------------------------------------|


Bridge:
e:---------------------------------------------------------------------------|
B:---------------------------------------------------------------------------|
G:---------------------------------------------------------5-----------------|
D:---------2------------2------------2-------------2-------5--5--7-----------|
A:---------2------------2------------2-------------2-------3--5--7-----------|
E:---3--3~-0------3--3~-0------3--3~-0-------3--3~-0----------3--5-----------|



Verse2(With full drums):
e:---------------------------------------------------------------------------|
B:---------------------------------------------------------------------------|
G:----2-----------------------------2--2-------------------------------------|
D:----2--------4p-2-----------------2--2-------------------------------------|
A:----0--3p-0--------3p-0--3p-0-----0--0-------------------------------------|
E:-------------------------------3-------------------------------------------|


Bridge:
e:---------------------------------------------------------------------------|
B:---------------------------------------------------------------------------|
G:---------------------------------------------------------5-----------------|
D:---------2------------2------------2-------------2-------5--5--7-----------|
A:---------2------------2------------2-------------2-------3--5--7-----------|
E:---3--3~-0------3--3~-0------3--3~-0-------3--3~-0----------3--5-----------|


Chorus:
e:---------------------------------------------------------------------------|
B:---------------------------------------------------------------------------|
G:-----2--5--7--------5--5----7--7------2-----------------------------2--2--2|
D:-----2--5--7--------5--5----7--7------2--------4p-2-----------------2--2--2|
A:-----0--3--5--------5--5----5--5------0--3p-0--------3p-0--3p-0-----0--0--0|
E:-----------------------------------------------------------------3---------|



e:---------------------------------------------------------------------------|
B:---------------------------------------------------------------------------|
G:-----------------------------2--5--7-------5--5-----7--7-----9--9----------|
D:--------4p-2-----------------2--5--7-------5--5-----7--7-----9--9----9--10-|
A:--3p-0--------3p-0--3p-0-----0--3--5-------5--5-----5--5-----7--7----7--8--|
E:--------------------------3------------------------------------------------|



e:---------------------------------------------------------------------------|
B:---------------------------------------------------------------------------|
G:----------------2----------------------------------------------------------|
D:11-12--13--14---2----------------------------------------------------------|
A:9--10--11--12---0----------------------------------------------------------|
E:---------------------------------------------------------------------------|


Bass Solo
                                                
Guitar in:
e:----------------------------------------------|
B:----------------------------------------------|
G:--------2-----------------------------2--2----|
D:--------2--------4p-2-----------------2--2----|
A:--------0--3p-0--------3p-0--3p-0-----0--0----|
E:-----------------------------------3----------|
Добавлено: 21.04.2016
Другие материалы по этой песне:
  • Аккорды и текст

Страница создана 21.04.2016
http://primanota.ru/peer-gunt/let-her-in-chords.htm
Привет, Гость.
Предлагаем пройти революционный курс по гитаре.
Подарок от PrimaNota.Ru, забирай!