PrimaNota.ru - самый крупный в мире бесплатный архив песенных текстов, аккордов, табулатур и нот


Peer Gunt - Hole In The Door - таба, видео

Регистрация Запомнить меня
Войти через:  Facebook Google Twitter Vk Yandex Mail.ru

Peer Gunt - Hole In The Door - таба, видео

Печатать
Просмотров: 70
Уроки эстрадного вокала в Санкт-Петербурге
notation legend:      

/   - slide up
\   - slide down


Intro:

E |-----------|-----------|-----------|-------------------|-------------12-----|
B |-----------|-----------|-----------|------------------___--------/12----12\-|
G#|-3-3-0--5--|-3-3-0--5--|-3-3-0--5--|----5-5-0-3-3-3-0'___'0-----------------|
E |-3-3-0--5--|-3-3-0--5--|-3-3-0--5--|----5-5-0-3-3-3-0'-|-'0-----------------|
B |-----------|-----------|-----------|-------------------|--------------------|
E |-----------|-----------|-----------|-------------------|--------------------|


Verse:

E |-------|--------------|--------------|--------------|-----------|
B |-------|--------------|--------------|--------------|-----------|
G#|-------|--------------|--------------|--------------|-----------|
E |-------|------------0-|------------0-|------------0-|-----------|
B |-------|-0-2--3-2-0---|-0-2--3-2-0---|-0-2--3-2-0---|-0-2-------|
E |-0-0-0-|--------------|--------------|--------------|-----------|


           Cold walls....  
E |-------|--------------|--------------|--------------|--------------|
B |-------|--------------|--------------|--------------|--------------|
G#|-------|--------------|--------------|--------------|--------------|
E |-------|------------0-|------------0-|------------0-|------------0-|
B |-------|-0-2--3-2-0---|-0-2--3-2-0---|-0-2--3-2-0---|-0-2--3-2-0---|
E |-0-0-0-|--------------|--------------|--------------|--------------|


   I'm lying here...
E |--------------|--------------|--------------|--------------|
B |--------------|--------------|--------------|--------------|
G#|--------------|--------------|--------------|--------------|
E |------------0-|------------0-|------------0-|------------0-|
B |-0-2--3-2-0---|-0-2--3-2-0---|-0-2--3-2-0---|-0-2--3-2-0---|
E |--------------|--------------|--------------|--------------|



                      A little light...   
E |------------------|--------------|------------------|
B |------------------|--------------|------------------|
G#|-3-3-0--5-5-5--0--|--------------|-3-3-0--5-5-5--0--|
E |-3-3-0--5-5-5--0--|------------0-|-3-3-0--5-5-5--0--|
B |------------------|-0-2--3-2-0---|------------------|
E |------------------|--------------|------------------|


   I have smoked...
E |--------------|--------------|--------------|--------------|
B |--------------|--------------|--------------|--------------|
G#|--------------|--------------|--------------|--------------|
E |------------0-|------------0-|------------0-|------------0-|
B |-0-2--3-2-0---|-0-2--3-2-0---|-0-2--3-2-0---|-0-2--3-2-0---|
E |--------------|--------------|--------------|--------------|


   I'm so worry...
E |--------------|--------------|--------------|--------------|
B |--------------|--------------|--------------|--------------|
G#|--------------|--------------|--------------|--------------|
E |------------0-|------------0-|------------0-|------------0-|
B |-0-2--3-2-0---|-0-2--3-2-0---|-0-2--3-2-0---|-0-2--3-2-0---|
E |--------------|--------------|--------------|--------------|


                      Only thing I can see.   
E |------------------|--------------|
B |------------------|--------------|
G#|-3-3-0--5-5-5--0--|--------------|
E |-3-3-0--5-5-5--0--|------------0-|
B |------------------|-0-2--3-2-0---|
E |------------------|--------------|


                      A blinking eye...   
E |------------------|--------------|
B |------------------|--------------|
G#|-3-3-0--5-5-5--0--|--------------|
E |-3-3-0--5-5-5--0--|------------0-|
B |------------------|-0-2--3-2-0---|
E |------------------|--------------|


                      A little light in the dark.   
E |------------------|--------------|
B |------------------|--------------|
G#|-3-3-0--5-5-5--0--|--------------|
E |-3-3-0--5-5-5--0--|------------0-|
B |------------------|-0-2--3-2-0---|
E |------------------|--------------|


                                There's a, there's a,                 
E |------------------|--------------|------|
B |------------------|--------------|------|
G#|-3-3-0--5-5-5--0--|--------------|------|
E |-3-3-0--5-5-5--0--|------------0-|------|
B |------------------|-0-2--3-2-0---|-0-2--|
E |------------------|--------------|------|


Chorus:

   Hole in the door
E |----------------|-------------------|
B |----------------|-------------------|
G#|-5--5-3--5------|-10-10-8--10-10-8--|
E |-5--5-3--5------|-10-10-8--10-10-8--|
B |----------------|-------------------|
E |----------------|-------------------|


   Hole in the door
E |----------------|---------------|
B |----------------|---------------|
G#|-5--5-3--5------|-10-10-8--10---|
E |-5--5-3--5------|-10-10-8--10---|
B |----------------|---------------|
E |----------------|---------------|


Verse2:

       A little....  
E |---|--------------|--------------|--------------|--------------|
B |---|--------------|--------------|--------------|--------------|
G#|---|--------------|--------------|--------------|--------------|
E |---|------------0-|------------0-|------------0-|------------0-|
B |---|-0-2--3-2-0---|-0-2--3-2-0---|-0-2--3-2-0---|-0-2--3-2-0---|
E |-0-|--------------|--------------|--------------|--------------|


   This noisy silence...
E |--------------|--------------|--------------|--------------|
B |--------------|--------------|--------------|--------------|
G#|--------------|--------------|--------------|--------------|
E |------------0-|------------0-|------------0-|------------0-|
B |-0-2--3-2-0---|-0-2--3-2-0---|-0-2--3-2-0---|-0-2--3-2-0---|
E |--------------|--------------|--------------|--------------|


                      Only thing I can see.   
E |------------------|--------------|
B |------------------|--------------|
G#|-3-3-0--5-5-5--0--|--------------|
E |-3-3-0--5-5-5--0--|------------0-|
B |------------------|-0-2--3-2-0---|
E |------------------|--------------|


                      A blinking eye...   
E |------------------|--------------|
B |------------------|--------------|
G#|-3-3-0--5-5-5--0--|--------------|
E |-3-3-0--5-5-5--0--|------------0-|
B |------------------|-0-2--3-2-0---|
E |------------------|--------------|


                      A little light in the dark.   
E |------------------|--------------|
B |------------------|--------------|
G#|-3-3-0--5-5-5--0--|--------------|
E |-3-3-0--5-5-5--0--|------------0-|
B |------------------|-0-2--3-2-0---|
E |------------------|--------------|


                                There's a...
E |------------------|--------------|
B |------------------|--------------|
G#|-3-3-0--5-5-5--0--|--------------|
E |-3-3-0--5-5-5--0--|------------0-|
B |------------------|-0-2--3-2-0---|
E |------------------|--------------|

   
             I believe..     All those..
E |---------------|---------------|
B |---------------|---------------|
G#|-3-3-0--5------|-3-3-0--5------|
E |-3-3-0--5------|-3-3-0--5------|
B |---------------|---------------|
E |---------------|---------------|

             A creation...
E |---------------|-------------------|
B |---------------|-------------------|
G#|-3-3-0--5------|----5-5-0-3-3-3-0--|
E |-3-3-0--5------|----5-5-0-3-3-3-0--|
B |---------------|-------------------|
E |---------------|-------------------|


             I'm chewing my.. fingernails..
E |---------------|---------------|
B |---------------|---------------|
G#|-3-3-0--5------|-3-3-0--5------|
E |-3-3-0--5------|-3-3-0--5------|
B |---------------|---------------|
E |---------------|---------------|

             I never been...
E |---------------|------------------------|
B |---------------|---------------------7--|
G#|-3-3-0--5------|----5-5-0-3-3-3--6/7----|
E |-3-3-0--5------|----5-5-0-3-3-3---------|
B |---------------|------------------------|
E |---------------|------------------------|


E |--------|--------|--------|
B |-----7--|-----7--|-----7--|
G#|-6/7----|-6/7----|-6/7----|
E |--------|--------|--------|
B |--------|--------|--------|
E |--------|--------|--------|


E |--------|--------|--------|
B |-----7--|-----7--|-----7--|
G#|-6/7----|-6/7----|-6/7----|
E |--------|--------|--------|
B |--------|--------|--------|
E |--------|--------|--------|


E |----------------------------|
B |-6/10-10-10-10-10-10-10-10--|
G#|-6/10-10-10-10-10-10-10-10--|
E |----------------------------|
B |----------------------------|
E |----------------------------|


Chorus:

   Hole in the door
E |----------------|-------------------|
B |----------------|-------------------|
G#|-5--5-3--5------|-10-10-8--10-10-8--|
E |-5--5-3--5------|-10-10-8--10-10-8--|
B |----------------|-------------------|
E |----------------|-------------------|


   Hole in the door
E |----------------|-------------------|
B |----------------|-------------------|
G#|-5--5-3--5------|-10-10-8--10-10-8--|
E |-5--5-3--5------|-10-10-8--10-10-8--|
B |----------------|-------------------|
E |----------------|-------------------|


   Hole in the door
E |----------------|-------------------|
B |----------------|-------------------|
G#|-5--5-3--5------|-10-10-8--10-10-8--|
E |-5--5-3--5------|-10-10-8--10-10-8--|
B |----------------|-------------------|
E |----------------|-------------------|


   Hole in the door
E |----------------|---------------|
B |----------------|---------------|
G#|-5--5-3--5------|-10-10-8--10---|
E |-5--5-3--5------|-10-10-8--10---|
B |----------------|---------------|
E |----------------|---------------|


             I believe..     All those..
E |---------------|---------------|
B |---------------|---------------|
G#|-3-3-0--5------|-3-3-0--5------|
E |-3-3-0--5------|-3-3-0--5------|
B |---------------|---------------|
E |---------------|---------------|

             A creation...
E |---------------|-------------------|
B |---------------|-------------------|
G#|-3-3-0--5------|----5-5-0-3-3-3-0--|
E |-3-3-0--5------|----5-5-0-3-3-3-0--|
B |---------------|-------------------|
E |---------------|-------------------|


             I'm chewing my.. fingernails..
E |---------------|---------------|
B |---------------|---------------|
G#|-3-3-0--5------|-3-3-0--5------|
E |-3-3-0--5------|-3-3-0--5------|
B |---------------|---------------|
E |---------------|---------------|

             I never been...
E |---------------|------------------------|
B |---------------|---------------------7--|
G#|-3-3-0--5------|----5-5-0-3-3-3--6/7----|
E |-3-3-0--5------|----5-5-0-3-3-3---------|
B |---------------|------------------------|
E |---------------|------------------------|


E |--------|--------|--------|
B |-----7--|-----7--|-----7--|
G#|-6/7----|-6/7----|-6/7----|
E |--------|--------|--------|
B |--------|--------|--------|
E |--------|--------|--------|


E |----------------------------|
B |-6/10-10-10-10-10-10-10-10--|
G#|-6/10-10-10-10-10-10-10-10--|
E |----------------------------|
B |----------------------------|
E |----------------------------|


Chorus:

   Hole in the door
E |----------------|-------------------|
B |----------------|-------------------|
G#|-5--5-3--5------|-10-10-8--10-10-8--|
E |-5--5-3--5------|-10-10-8--10-10-8--|
B |----------------|-------------------|
E |----------------|-------------------|


   Hole in the door
E |----------------|-------------------|
B |----------------|-------------------|
G#|-5--5-3--5------|-10-10-8--10-10-8--|
E |-5--5-3--5------|-10-10-8--10-10-8--|
B |----------------|-------------------|
E |----------------|-------------------|


   Hole in the door
E |----------------|-------------------|
B |----------------|-------------------|
G#|-5--5-3--5------|-10-10-8--10-10-8--|
E |-5--5-3--5------|-10-10-8--10-10-8--|
B |----------------|-------------------|
E |----------------|-------------------|


Fade out
Добавлено: 21.04.2016
Другие материалы по этой песне:
  • Аккорды и текст

Страница создана 21.04.2016
http://primanota.ru/peer-gunt/hole-in-door-chords.htm
Привет, Гость.
Предлагаем пройти революционный курс по гитаре.
Подарок от PrimaNota.Ru, забирай!