PrimaNota.ru - самый крупный в мире бесплатный архив песенных текстов, аккордов, табулатур и нот


Peer Gunt - Behind The Line - таба, видео

Регистрация Запомнить меня
Войти через:  Facebook Google Twitter Vk Yandex Mail.ru

Peer Gunt - Behind The Line - таба, видео

Печатать
Просмотров: 27
notation legend:      

/   - slide up
\   - slide down
~   - vibrato
b   - bend 1/4      
ho  - hammer on
po  - pull off        

Intro:

play 4x
E ||----------------------------------------|-----------------------------------||
B ||------------12------------------5-------|----------7------------------------||
G#||.-------/12----12\-----------/5---5\----|-------/7---7\----/3--/3--0-------.||
E ||.---------------------------------------|------------------/3--/3--0---5\--.||
B ||----------------------------------------|-0--0-------------------------5\---||
E ||-0--0-----------------0--0--------------|-----------------------------------||


E |----------------------------------------|
B |----------------------------------------|
G#|----------------------------------------|
E |----------------------------------------|
B |-0--0-2--0-3--0-2--0-3--0-2--0----------|
E |--------------------------------3/------|


E |-----------------------------------------------|
B |----------------------/12-----12------12\------|
G#|--------------------------12------12-----------|
E |-----------------------------------------------|
B |-0--0-2--0-3--0-2--0---------------------------|
E |-----------------------------------------------|


Verse:

E |-----------------------------------------|----------------------------------------------|
B |-----------------------------------------|----------------------------------------------|
G#|-----------------------------------------|----------------------------------------------|
E |-----------------------------------------|--------------------------------0--0----------|
B |-0--0-2--0-3--0-2--0-0--0-2--0-3--0-2--0-|-0--0-2--0-3--0-2--0-0--0-2--3-------3-2-0----|
E |-----------------------------------------|----------------------------------------------|


E |-----------------------------------------|-----------------------------------------|
B |-----------------------------------------|-----------------------------------------|
G#|-----------------------------------------|-----------------------------------------|
E |-0---------------------------------------|-----------------------------------------|
B |----0-2--0-3--0-2--0-0--0-2--0-3--0-2--0-|-0--0-2--0-3--0-2--0-0--0-2--0-3--0-2--0-|
E |-----------------------------------------|-----------------------------------------|


E ||------------------------|------------------------------------------||
B ||------------------------|------------------------------------------||
G#||.--/5----/5-\3--0-------|-----------------------------------------.||
E ||.--/5----/5-\3--0--/3---|-----------------------------------------.||
B ||-------------------/3---|-0--0-2--0-3--0-2--0-0--0-2--0-3--0-2--0--||
E ||------------------------|------------------------------------------||


Chorus:

E |--------------------|-----------------------|
B |--------------------|-----------------------|
G#|--------------------|-----------1/3---/5----|
E |-1--/3-----3--/5----|--5--/7----1/3---/5----|
B |-1--/3-----3--/5----|--5--/7----------------|
E |--------------------|-----------------------|
Добавлено: 21.04.2016
Другие материалы по этой песне:
  • Аккорды и текст

Страница создана 21.04.2016
http://primanota.ru/peer-gunt/behind-line-chords.htm
Привет, Гость.
Предлагаем пройти революционный курс по гитаре.
Подарок от PrimaNota.Ru, забирай!