PrimaNota.ru - самый крупный в мире бесплатный архив песенных текстов, аккордов, табулатур и нот


Peer Gunt - Bad Girls - таба, видео

Регистрация Запомнить меня
Войти через:  Facebook Google Twitter Vk Yandex Mail.ru

Peer Gunt - Bad Girls - таба, видео

Печатать
Просмотров: 41
Уроки эстрадного вокала в Санкт-Петербурге
Intro:
                              x3
E||-----------------------------||--------------------|
B||-----------------------------||--------------------|
G||.---------------------------.||--------------------|
D||.------2-----2-----2--------.||-------2-----2------|
A||-----------------------------||--------------------|
E||-0--3-----3-----3-----3-2----||-0--3-----3---------|


Verse:

E||-----------------------------||
B||-----------------------------||
G||.---------------------------.||
D||.------2-----2-----2--------.||
A||-----------------------------||
E||-0--3-----3-----3-----3-2----||


Chorus:

E|------|------||-----------------------------||
B|--3---|------||-----------------------------||
G|--2---|--2---||.---------------------------.||
D|--0---|--2---||.------2-----2-----2--------.||
A|------|--0---||-----------------------------||
E|------|------||-0--3-----3-----3-----3-2----||


Bridge:

E||------|-----|-----|------||
B||------|-----|-----|------||
G||.--4--|-----|--5--|--7--.||
D||.--4--|--5--|--5--|--7--.||
A||---2--|--5--|--3--|--5---||
E||------|--3--|-----|------||
Добавлено: 21.04.2016
Другие материалы по этой песне:
  • Аккорды и текст

Страница создана 21.04.2016
http://primanota.ru/peer-gunt/bad-girls-chords.htm
Привет, Гость.
Предлагаем пройти революционный курс по гитаре.
Подарок от PrimaNota.Ru, забирай!