PrimaNota.ru - самый крупный в мире бесплатный архив песенных текстов, аккордов, табулатур и нот


Pee Wee Gaskin - Welcoming The Sophomore - таба, видео

Регистрация Запомнить меня
Войти через:  Facebook Google Twitter Vk Yandex Mail.ru

Pee Wee Gaskin - Welcoming The Sophomore - таба, видео

Печатать
Просмотров: 54
-------------------------------------------------------------------------------
                   WELCOMING THE SOPHOMORE - Pee Wee Gaskin
-------------------------------------------------------------------------------
Tabbed by: eldo_valentinez
Email: eldo_valentinez@yahoo.co.nz

Tuning: drop D


(00:00 - 00:07)
e|---------------------------------------------------------------------------|
B|---------------------------------------------------------------------------|
G|-------7--x-x--------------------------------------------------------------|
D|-------7--x-x----6 X-------------------------------------------------------|
A|-------5--x-x--------------------------------------------------------------|
D|---------------------------------------------------------------------------|

(00:08 - 00:13)
e|---------------------------------------------------------------------------|
B|---------------------------------------------------------------------------|
G|---------------------------------------------------------------------------|
D|----5-------------7--------------------------------------------------------|
A|----5---16 X------7-------16-x---------------------------------------------|
E|----5-------------7--------------------------------------------------------|
      x             x

(00:13 - 00:32)  
e|---------------------------------------------------------------------------|
B|---------------------------------------------------------------------------|
G|-----7-------4-------------------------------------------------------------|
D|-----7-------4-------2-2----4-4---5-5----2---2-2----9-9---7-7-------2 X----|
A|-----5-------2-------2-2----4-4---5-5----2---2-2----9-9---7-7--------------|
E|---------------------2-2----4-4---5-5----2---2-2----9-9---7-7--------------|


(00:33)
e|---------------------------------------------------------------------------|
B|---------------------------------------------------------------------------|
G|---------------------------------------------------------------------------|
D|----5----------------------------------------------------------------------|
A|----5---let ring-----------------------------------------------------------|
E|----5----------------------------------------------------------------------|

(00:35 - 00:45)
e|---------------------------------------------------------------------------|
B|---------------------------------------------------------------------------|
G|-----7-7-7-----------------------------------------------------------------|
D|-----7-7-7------7--5-5------2--2-2------9--7-7-----------------------------|
A|-----5-5-5------7--5-5------2--2-2------9--7-7---let ring------------------|
E|----------------7--5-5------2--2-2------9--7-7-----------------------------|

(00:46 - 00:55) mute
e|---------------------------------------------------------------------------|
B|---------------------------------------------------------------------------|
G|-----7-7-7-----------------------------------------------------------------|
D|-----7-7-7------7--5-5------2--2-2------9--7-7-----------------------------|
A|-----5-5-5------7--5-5------2--2-2------9--7-7-----------------------------|
E|----------------7--5-5------2--2-2------9--7-7-----------------------------|
         x x         x x         x x         x x

(00:56 - 01:06)
e|---------------------------------------------------------------------------|
B|---------------------------------------------------------------------------|
G|---------------7-7--7-7----------------------------------------------------|
D|-----5-5-5-----x-x--x-x-----7-7-7----9-9-9--7-7--5-5-5-------2 X-----------|
A|-----5-5-5-----5-5--5-5-----7-7-7----9-9-9--7-7--5-5-5---------------------|
E|-----5-5-5------------------7-7-7----9-9-9--7-7--5-5-5---------------------|

(01:06 - 01:16) 
e|---------------------------------------------------------------------------|
B|---------------------------------------------------------------------------|
G|---------------7-7--7-7----------------------------------------------------|
D|-----5-5-5-----x-x--x-x-----7-7-7----9-9-9--7-7--2-2-2-2-2----5------------|
A|-----5-5-5-----5-5--5-5-----7-7-7----9-9-9--7-7--2-2-2-2-2----5---let ring-|
E|-----5-5-5------------------7-7-7----9-9-9--7-7--2-2-2-2-2----5------------|

(01:16 - 01:26)
e|---------------------------------------------------------------------------|
B|---------------------------------------------------------------------------|
G|---------------------------------------------------------------------------|
D|-----5-5-5--5-5--5-5--9-9--7-7-7--7-7--7-7--9-9---2X-------------------------|
A|-----5-5-5--5-5--5-5--9-9--7-7-7--7-7--7-7--9-9----------------------------|
E|-----5-5-5--5-5--5-5--9-9--7-7-7--7-7--7-7--9-9----------------------------|

(01:27)
e|---------------------------------------------------------------------------|
B|---------------------------------------------------------------------------|
G|---------------------------------------------------------------------------|
D|-----5---------------------------------------------------------------------|
A|-----5---16 X--------------------------------------------------------------|
E|-----5---------------------------------------------------------------------|
       x
(01:31 - 01:51)
e|---------------------------------------------------------------------------|
B|---------------------------------------------------------------------------|
G|---------------------------------------------------------------------------|
D|----0-0-0-----5-5-5------9-9--7-7---2-2--4-4--5-5--------------------------|
A|----0-0-0-----5-5-5------9-9--7-7---2-2--4-4--5-5----2X--------------------|
E|----0-0-0-----5-5-5------9-9--7-7---2-2--4-4--5-5--------------------------|

(01:52 - 02:11)
e|---------------------------------------------------------------------------|
B|---------------------------------------------------------------------------|
G|---------------------------------------------------------------------------|
D|----4-------------5----------------9---------------7--------------2 X------|
A|----4--let ring---5--let ring------9---let ring----7---let ring------------|
E|----4-------------5----------------9---------------7-----------------------|

(02:12 - 02:32)
e|---------------------------------------------------------------------------|
B|---------------------------------------------------------------------------|
G|---------------------------------------------------------------------------|
D|----4-4-4----5-5-5----9-9-9---7-7-7----------------------------------------|
A|----4-4-4----5-5-5----9-9-9---7-7-7----2 X---------------------------------|
E|----4-4-4----5-5-5----9-9-9---7-7-7----------------------------------------|

sisanya cuma mengulang pattern yang udah ada.
koreksi atau kesalahan bisa email gw aja
thanks.





| /  slide up
| \  slide down
| h  hammer-on
| p  pull-off
| ~  vibrato
| +  harmonic
| x  Mute note
===============================================================================
Добавлено: 16.06.2013
Другие материалы по этой песне:
  • Аккорды и текст

Страница создана 16.06.2013
http://primanota.ru/pee-wee-gaskin/welcoming-the-sophomore-chords.htm
Привет, Гость.
Предлагаем пройти революционный курс по гитаре.
Подарок от PrimaNota.Ru, забирай!