PrimaNota.ru - самый крупный в мире бесплатный архив песенных текстов, аккордов, табулатур и нот


Pee Wee Gaskin - Berdiri Terinjak - таба, видео

Регистрация Запомнить меня
Войти через:  Facebook Google Twitter Vk Yandex Mail.ru

Pee Wee Gaskin - Berdiri Terinjak - таба, видео

Печатать
Просмотров: 70
-------------------------------------------------------------------------------
			     BERDIRI TERINJAK - PEE WEE GASKIN
-------------------------------------------------------------------------------
Tabbed by: eldo_valentinez
Email: eldo_valentinez@yahoo.co.nz

Tuning: standard tuning

00:00 - 00:08
e|---------------------------------------------------------------------------|
B|-------3------3------------------------------------------------------------|
G|---6-6----6-6--------------------------------------------------------------|
D|---------------------------------------------------------------------------|
A|---------------------------------------------------------------------------|
E|---------------------------------------------------------------------------|
     x x    x x

00:08 - 00:26  (CHORUS)
e|---------------------------------------------------------------------------|
B|---------------------------------------------------------------------------|
G|--------7------------------------------------------------------------------|
D|--------7-------5-----9-----7----------------------------------------------|
A|--------5-------5-----9-----7----------------------------------------------|
E|----------------3-----7-----5----------------------------------------------|

00:26 - 00:34
e|---------------------------------------------------------------------------|
B|---------------------------------------------------------------------------|
G|-------7-7-7-------------------------------------7-7-7---------------------|
D|-------7-7-7----5-5-5---9-9-9------5-5-5--7-7-7--7-7-7---------------------|
A|-------5-5-5----5-5-5---9-9-9------5-5-5--7-7-7--5-5-5---------------------|
E|----------------3-3-3---7-7-7------3-3-3--5-5-5----------------------------|

00:35 - 00:43
e|--------------------------------------------------------------------------|
B|--------------------------------------------------------------------------|
G|----7-x-x-x---7-x-x-------------------------------------------------------|
D|----7-x-x-x---7-x-x----2X-------------------------------------------------|
A|----5-x-x-x---5-x-x-------------------------------------------------------|
E|--------------------------------------------------------------------------|

00:43 - 01:01 (CHORUS)

01:01 - 01:05
e|--------------------------------------------------------------------------|
B|--------------------------------------------------------------------------|
G|----------------------------------------4---------------------------------|
D|-----5----------------7-----------------4----let ring---------------------|
A|-----5---let-ring-----7---let ring------2---------------------------------|
E|-----3----------------5---------------------------------------------------|

BREAKDOWN (Keybroad Solo)

01:10 - 01:14
e|--------------------------------------------------------------------------|
B|--------------------------------------------------------------------------|
G|-------7-7-7---6-6-6---7-7-7--9-9-9---------------------------------------|
D|-------x-x-x---x-x-x---x-x-x--x-x-x---------------------------------------|
A|-------5-5-5---4-4-4---5-5-5--7-7-7---------------------------------------|
E|--------------------------------------------------------------------------|

01:23 - 01:58 (CHORUS)

01:58 - 02:06
e|--------------------------------------------------------------------------|
B|--------------------------------------------------------------------------|
G|-----7-7------------------------------------------------------------------|
D|-----7-7---mute 16 times--------------------------------------------------|
A|-----5-5------------------------------------------------------------------|
E|--------------------------------------------------------------------------|
         x

02:07 - 02:32 (SOLO)
e|-------------------------------------------------------------------------|
B|-------------------------------------------------------------------------|
G|-----------7-----7---9b119~~~-------7-----7--9b11--9---7-----------------|
D|-------/9-----9-----------------/9-----9---------------------------------|
A|-------------------------------------------------------------------------|
E|-------------------------------------------------------------------------|

e|--------------------------------------------------------------------------|
B|--------------------------------------------------------------------------|
G|-----------7-----7---9b119~~~-----------7-----7-----7---------9-----9---9-|
D|-------/9-----9------------------9-9-9----9-9----9------9-9-9---9-9---9---|
A|--------------------------------------------------------------------------|
E|--------------------------------------------------------------------------|
                                   x x x    x x    x      x x x   x x   x
02:23 - 02:31
e|-----12--------------14--------------12-------------14---------------------|
B|-----15b17---5X------17b19----5X-----15b17----5X----17b19------------------|
G|---------------------------------------------------------------------------|
D|---------------------------------------------------------------------------|
A|---------------------------------------------------------------------------|
E|---------------------------------------------------------------------------|

02:31 - 02:49
e|---------------------------------------------------------------------------|
B|---------------------------------------------------------------------------|
G|-----7---7----4------------------------------------------------------------|
D|-----7---7----4----7---5-5---5-5---4X--------------------------------------|
A|-----5---4----2----7---5-5---5-5-------------------------------------------|
E|-------------------5---3-3---3-3-------------------------------------------|

02:49
e|---------------------------------------------------------------------------|
B|---------------------------------------------------------------------------|
G|-----7---7-----------------------------------------------------------------|
D|-----7---7---------5--------4---5-5----5-5---------------------------------|
A|-----5---4----2-2------2-2------5-5----5-5---------------------------------|
E|--------------------------------3-3----3-3---------------------------------|
                x x      x x
03:43 (OUTRO)
e|--------------------------------------------------------------------------|
B|--------------------------------------------------------------------------|
G|--------------------------------------------------------------------------|
D|----5---------------------------------------------------------------------|
A|----5--let ring-----2-3--2-3----------------------------------------------|
E|----3-----------3-3-------------------------------------------------------|
                  x x

ENJOY

sisanya cuma mengulang2 kok, kalo ada pertanyaan email gw aja

thx

| /  slide up
| \  slide down
| h  hammer-on
| p  pull-off
| ~  vibrato
| +  harmonic
| x  Mute note
===============================================================================
Добавлено: 14.06.2013
Другие материалы по этой песне:
  • Аккорды и текст

Страница создана 14.06.2013
http://primanota.ru/pee-wee-gaskin/berdiri-terinjak-chords.htm
Привет, Гость.
Предлагаем пройти революционный курс по гитаре.
Подарок от PrimaNota.Ru, забирай!