PrimaNota.ru - самый крупный в мире бесплатный архив песенных текстов, аккордов, табулатур и нот


Pedro The Lion - Promise - текст песни, таба, видео

Регистрация Запомнить меня
Войти через:  Facebook Google Twitter Vk Yandex Mail.ru

Pedro The Lion - Promise - текст песни, таба, видео

Печатать
Просмотров: 70
Author/Artist: Pedro the lion
Title: Promise
Album: It's Hard to Find A Friend
Email: scott_houle@hotmail.com


Standard Tuning


Intro/Verse


------------------------------------------------------------------------
---3---3---3---3---3---3---3---3---3---3---3---3---3---3---3---3--------
-2---2---2---2---1---1---1---1---0---0---0---0---3---3---3---3----------
------------------------------------------------------------------------
------------------------------------------------------------------------
------------------------------------------------------------------------


Pre-Chorus

------------------------------------------------------------------------
------------------------------------------------------------------------
-----------------------11111112-12-12-111111-12-11----------------------
-9-9-9-9-9--9-9-9-9-9--11111112-12-12-111111-12-11----------------------
-9-9-9-9-9--9-9-9-9-9--9-9-9-10-10-10-9-9-9--10-9-----------------------
-7-7-7-7-7--5-5-5-5-5---------------------------------------------------


Chorus - Palm muted, until near the end of the song, then distorted

-----------------------------------------------------------------------
------------------------------------------------------------------------
--7-7-7-7-7-7-7-7--4-4-4-4-4-4-4-4-7-7-7-7-9-11-------------------------
--7-7-7-7-7-7-7-7--4-4-4-4-4-4-4-4-7-7-7-7/9/11-------------------------
--5-5-5-5-5-5-5-5--2-2-2-2-2-2-2-2-5-5-5-5/7/9--------------------------
------------------------------------------------------------------------

------------------------------------------------------------------------
------------------------------------------------------------------------
--7-7-7-7-7-7-7-7--4-4-4-4-4-4-4-4--11111112-12-12-11111112-12-12-------
--7-7-7-7-7-7-7-7--4-4-4-4-4-4-4-4--11111112-12-12-11111112-12-12-------
--5-5-5-5-5-5-5-5--2-2-2-2-2-2-2-2--9-9-9-10-10-10-9-9-9-10-10-10-------
------------------------------------------------------------------------


Bridge

---------------0--------------------------------------------------------
---7---7-5-------3-2-0-2-3--7---7-5-------------------------------------
-----7-----7-6----------------7-----7-6----11-11-12-12------------------
------------------------------------------------------------------------
-------------------------------------------9--9--10-10------------------
------------------------------------------------------------------------


Listen to the album for specific rhythm and to put it together.


Questions, comments: scott_houle@hotmail.com
     
Добавлено: 25.08.2013
Другие материалы по этой песне:

Страница создана 27.06.2012
http://primanota.ru/pedro-the-lion/promise-chords.htm
Привет, Гость.
Предлагаем пройти революционный курс по гитаре.
Подарок от PrimaNota.Ru, забирай!