PrimaNota.ru - самый крупный в мире бесплатный архив песенных текстов, аккордов, табулатур и нот


Pedro The Lion - Criticism As Inspiration - текст песни, таба, видео

Регистрация Запомнить меня
Войти через:  Facebook Google Twitter Vk Yandex Mail.ru

Pedro The Lion - Criticism As Inspiration - текст песни, таба, видео

Печатать
Просмотров: 112
I did NOT make this tab I found it on another site and thought it was accurate so I 
to post it on here


Standard Tuning


Intro Riff #1

------------------------------------------------------------------------|
------------------------------------------------------------------------|
----------------------------------------0-----4-------2-----------------|
----0----5-4-----------0------5-4-----0---0-----------------------------|
--0---0--------------2---2----------------------------------------------|
------------------------------------------------------------------------|


Intro Riff #2/Verses

------------------------------------------------------------------------|
------------------------------------------------------------------------|
------------------------------------------------------------------------|
----0----5-4--------0-----5-4------0----5-4-------0-----5-4-------------|
--0---0-----------0---0----------2---2----------2---2-------------------|
------------------------------------------------------------------------|


------------------------------------------------------------------------|
-----------------------------3---3-2---2--------------------------------|
---0----4----0-----4-----2-----2-----2---2------------------------------|
-0---0-----0---0-----------0-------------0------------------------------|
------------------------------------------------------------------------|
------------------------------------------------------------------------|


Build up Before Chorus

D

-2-2-2-2-2-2-2-2-2-2-2-2------------------------------------------------|
-3-3-3-3-3-3-3-3-3-3-3-3------------------------------------------------|
-2-2-2-2-2-2-2-2-2-2-2-2------------------------------------------------|
-0-0-0-0-0-0-0-0-0-0-0-0------------------------------------------------|
------------------------------------------------------------------------|
------------------------------------------------------------------------|


Chorus (Really only one guitar I think, but the bend on the bass is
        Quite prominent)

Gtr.1

  A     G     D          G

--0-0---3-3---2-2-2-2-2--3-3-3-3-3--------------------------------------|
--2-2---3-3---3-3-3-3-3--3-3-3-3-3--------------------------------------|
--2-2---0-0---2-2-2-2-2--0-0-0-0-0--------------------------------------|
--2-2---0-0---0-0-0-0-0--0-0-0-0-0--------------------------------------|
--0-0---x-x--------------x-x-x-x-x--------------------------------------|
--------3-3--------------3-3-3-3-3--------------------------------------|


Gtr.2

  A           D          G

--0-0---------2-2-2-2-2--3-3-3-3-3--------------------------------------|
--2-2---------3-3-3-3-3--3-3-3-3-3--------------------------------------|
--2-2---------2-2-2-2-2--0-0-0-0-0--------------------------------------|
--2-2---------0-0-0-0-0--0-0-0-0-0--------------------------------------|
--0-0--------------------x-x-x-x-x--------------------------------------|
--------3b---------------3-3-3-3-3--------------------------------------|


End of Chorus

G

-3-3-3-3-3-3-3-3-3------------------------------------------------------|
-3-3-3-3-3-3-3-3-3------------------------------------------------------|
-0-0-0-0-0-0-0-0-0------------------------------------------------------|
-0-0-0-0-0-0-0-0-0------------------------------------------------------|
-x-x-x-x-x-x-x-x-x------------------------------------------------------|
-3-3-3-3-3-3-3-3-3------------------------------------------------------|


The "angels always looking down..." Part

  D                                  D?

--2--2-2-2-2-2-2-2-2-2-2-2-2-2-2-2---2-2-2-2-2-2-2-2-2-2-2-2-2-2-2-2----|
--3--3-3-3-3-3-3-3-3-3-3-3-3-3-3-3---2-2-2-2-2-2-2-2-2-2-2-2-2-2-2-2----|
--2--2-2-2-2-2-2-2-2-2-2-2-2-2-2-2---2-2-2-2-2-2-2-2-2-2-2-2-2-2-2-2----|
--0--0-0-0-0-0-0-0-0-0-0-0-0-0-0-0---0-0-0-0-0-0-0-0-0-0-0-0-0-0-0-0----|
------------------------------------------------------------------------|
------------------------------------------------------------------------|

Instrumental Bridge (I am pretty sure that there are 2 guitars here,
                     so I've done my best to put something together as
                     one, but its far from accurate)
  3:46

------------------------------------------------------------------------|
------2---32--3-2--------2----3-2---3-2--------3-2---2/-5-/-8-8-8-8-----|
-------2---------2---------2------------2----------2--------------------|
--0-0---0---0-----0--0-0-----0----0-------0--0--0-0-0--0-0-0-0-0-0-0----|
------------------------------------------------------------------------|
------------------------------------------------------------------------|


---2-0--2-0-2-0---2-0---2-0-2-0--2h3-3-3/-5-5-5/-7-7-7-7-7-7-7----------|
---3--3-----3-----3---3-----3----3-3-3-3/-5-5-5/-7-7-7-7-7-7-7----------|
-2--------------2----------------2-2-2-2/-4-4-4/-6-6-6-6-6-6-6----------|
-0--------------0-------------------------------------------------------|
------------------------------------------------------------------------|
------------------------------------------------------------------------|

4:34

-2-2-2-2-2-2-2-2-2-2-2-2------------------------------------------------|
-3-3-3-3-3-3-3-3-3-3-3-3------------------------------------------------|
-2-2-2-2-2-2-2-2-2-2-2-2------------------------------------------------|
-0-0-0-0-0-0-0-0-0-0-0-0------------------------------------------------|
------------------------------------------------------------------------|
------------------------------------------------------------------------|

4:40
Repeat 3  times

--0-0-2-0-2-0-3-3-3-3-3-3-3-3-2-2-0-0-----------------------------------|
--3-3-3-3-3-3-3-3-3-3-3-3-3-3-3-3-3-3-----------------------------------|
--2-2-2-2-2-2-2-2-2-2-2-2-2-2-2-2-2-2-----------------------------------|
--0-0-0-0-0-0-0-0-0-0-0-0-0-0-0-0-0-0-----------------------------------|
------------------------------------------------------------------------|
------------------------------------------------------------------------|

5:00

-2-2-2-2-2-2-2----------------------------------------------------------|
-3-3-3-3-3-3-3----------------------------------------------------------|
-2-2-2-2-2-2-2----------------------------------------------------------|
-0-0-0-0-0-0-0----------------------------------------------------------|
------------------------------------------------------------------------|
------------------------------------------------------------------------|

Then back to the Chorus


Listen to the Album to put the whole thing together, and for the
rhythm,which is from memory here.
Добавлено: 09.06.2012
Другие материалы по этой песне:
  • Аккорды и текст

Страница создана 02.06.2012
http://primanota.ru/pedro-the-lion/criticism-as-inspiration-chords.htm
Привет, Гость.
Предлагаем пройти революционный курс по гитаре.
Подарок от PrimaNota.Ru, забирай!