PrimaNota.ru - самый крупный в мире бесплатный архив песенных текстов, аккордов, табулатур и нот


Pedro Suárez-Vértiz - Me Siento Mejor - аккорды и текст, видео

Регистрация Запомнить меня
Войти через:  Facebook Google Twitter Vk Yandex Mail.ru

Pedro Suárez-Vértiz - Me Siento Mejor - аккорды и текст, видео

Печатать
Просмотров: 58
Me Siento Mejor
Pedro Suárez-Vértiz
INTRO:

   D                      D
E -------2-----------2----------2-----------2---
B -3---3---3---3---3------3---3---3---3---3-----
G ---2-------2---2----------2-------2---2-------
D ---------------------------------------------- 
A ----------------------------------------------
E ----------------------------------------------

   D
E -------2--------------2--
B -3---3---3---3---3---3---
G ---2-------2---2----2----
D -------------------------
A -------------------------
E -------------------------

             D   A        
Me siento mejor, 
                  Bm   G  
mi situacion es nueva
       C              F               G   C   
ultimamente he recuperado la fascinacion
             D               A    
No he descubierto no cosas nuevas,
         Bm                   G
tan solo he regresado a las viejas,
              C              F              G     C
al sueño de amor y a los placeres de la inspiracion

             D   A
Me siento mejor,
                  Bm   G
mi situacion es nueva
          C               F                  G   C
he descubierto que sigo siendo un tipo bonachon
         D                     A
si yo dañe o ame en consecuencia
       Bm             G 
no golpeo mas mi conciencia
            C           F              G    C
fue mi corazon, amar a todos trae complicacion


INSTRUMENTAL: D-A-Bm-G-C-F-G-C

          D   A
La felicidad, 
                   Bm    G
pense que no era eterna
              C              F                G  C
y es que muy facil uno se enferma con la soledad
           D                A 
De los recuerdos no hago leyenda
       Bm               G
la nostalgia ya no me tienta
               C           F              G      C     
yo vivo en el hoy, ni en ayer ni en el mañana estoy

                D   A
Conoci a una mujer,
                Bm  G 
ella me dio su vida
        C             F                G  C  
le regale miles de notitas en un medallon
           D                    A             
ella aguanto el sufrir mi imprudencia
           Bm                  G
de que me sirve ahora la experiencia
              C           F             G          C
ya se la leccion y sIn embargo no la olvido hasta hoy


INSTRUMENTAL: D-A-Bm-G-C-F-G-C

               D   A
La real situacion,
                  Bm   G
por la que va tu vida,
           C                 F                G  C
son las palabras que se te quedan en una cancion
              D  A
Al cielo me ire
                   Bm   G
pero el demonio espera,
           C                   F                 G  C
sigue esperando pues yo lo arruino con mi represion
           D                A 
No me acostumbro, no a la idea
              Bm            G     
de que el placer posea fronteras
              C             F           G     C
pero es lo mejor para este mundo en putrefaccion

               D   A
Perdimos libertad
                Bm   G
generacion del SIDA
            C            F              G   C
yo que espere todita mi vida para reventar
                  D                  A
Despues de un millon de años ahora llegan
       Bm                G
moralidades que me desesperan
              C             F           G    C
pero es lo mejor, por eso ahora me siento mejor.


SALIDA:

   D                      D
E -------2-----------2----------2-----------2---
B -3---3---3---3---3------3---3---3---3---3-----
G ---2-------2---2----------2-------2---2-------
D ---------------------------------------------- 
A ----------------------------------------------
E ----------------------------------------------

   D                      D*      D
E -------2-----------2-----3---3----2-----------
B -3---3---3---3---3------3---3----3------------
G ---2-------2---2----------------2-------------
D ----------------------------------------------
A ----------------------------------------------
E ----------------------------------------------
Добавлено: 19.02.2016
Другие материалы по этой песне:
  • Аккорды и текст

Страница создана 19.02.2016
http://primanota.ru/pedro-suarez-vertiz-2/me-siento-mejor-chords.htm
Привет, Гость.
Предлагаем пройти революционный курс по гитаре.
Подарок от PrimaNota.Ru, забирай!