PrimaNota.ru - самый крупный в мире бесплатный архив песенных текстов, аккордов, табулатур и нот


Pedrito Otiniano - Amor Ciego - аккорды и текст, видео

Регистрация Запомнить меня
Войти через:  Facebook Google Twitter Vk Yandex Mail.ru

Pedrito Otiniano - Amor Ciego - аккорды и текст, видео

Печатать
Просмотров: 67
Amor Ciego
Pedrito Otiniano
Ritmo Bolero

(1)0 *

Rasgueo:  pp   i    am  ps     x  ami    p  ami
          ↓    ↑     ↓  ↓          ↑     ↓   ↓ 
          1          2         3         4   -

intro:

e|-------12-14-15-15-19-15-14-12----------8-7-10-9--8------------------------|
B|----12------------------------------10-10-9-12-11-10-----------------------|
G|-12---------------------------------9--------------------------------------|

e|----------12-14-12-14-12-12-11--------------12-14-12-14-12-12-11-----------|
B|-10-12-13-13-13-13-13-13-13-12-----10-12-13-13-13-13-13-13-13-12-----------|
G|-11-12-14--------------------------11-12-14--------------------------------|


e|--------8-7-10--8-10--8-7--------------------------------------------------|
B|-10-12-10-9-10-10-10-10-8------------8-7-10-9--8---------------------------|
G|-11-12-----------------------------9-9-8-11-10-9---------------------------|

se repite todo y luego 

5)0  6)3-2

                    

Em
No... no me dejes solo
             E7
mira que me muero
               Am
si no estoy contigo
B7
no, no me desampares

hoy que necesito
             Em
mucho mas de ti.


Em
Ven... que yo te prometo
              E7
no mirar tus ojos
             Am
ni besar tu boca
B7   C    B7
tu........ le daras consuelo

a este amor tan ciego
               Em
como lo es mi amor.


D                       
Ven, que aunque yo no pueda
                
ni mirar tus ojos
            G
ni besar tu boca
B7   C    B7
tu........ le daras consuelo

a este amor tan ciego
               Em
como lo es mi amor.


Em
No... no me dejes solo
             E7
mira que me muero
               Am
si no estoy contigo
B7
no, no me desampares

hoy que necesito
             Em
mucho mas de ti.


* Notas exactas para comenzar a cantar.  El numero en parentesis es la cuerda y los otros los trastes.
Добавлено: 09.12.2015
Другие материалы по этой песне:
  • Аккорды и текст

Страница создана 09.12.2015
http://primanota.ru/pedrito-otiniano/amor-ciego-chords.htm
Привет, Гость.
Предлагаем пройти революционный курс по гитаре.
Подарок от PrimaNota.Ru, забирай!