PrimaNota.ru - самый крупный в мире бесплатный архив песенных текстов, аккордов, табулатур и нот


Pearl Jam - Why Go - текст песни, таба, бас-таба, видео

Регистрация Запомнить меня
Войти через:  Facebook Google Twitter Vk Yandex Mail.ru

Pearl Jam - Why Go - текст песни, таба, бас-таба, видео

Печатать
Просмотров: 255
Pearl Jam - Why Go
Album - Ten

Keep in mind Im only writing core of the song, not every detail.

Intro Drums and bass then...

wah on

e-|-------------|-----------------|-----------------|-----------------|--|
B-|-------------|-----------------|-----------------|--19--19-19--19--|--|
G-|--9--9-9--9--|--13--13-13--13--|--14--14-14--14--|--19--19-19--19--|--|
D-|--9--9-9--9--|--12--12-12--12--|--12--12-12--12--|--19--19-19--19--|--|
A-|--7--7-7--7--|-----------------|-----------------|--17--17-17--17--|--|
E-|-------------|-----------------|-----------------|-----------------|--|

--|--12xxx-12xxx-12x-12xxx-12xxx-12x-12xxx-12xxx-12x-12xxx-12xxx-12x--|--|
--|--12xxx-12xxx-12x-12xxx-12xxx-12x-12xxx-12xxx-12x-12xxx-12xxx-12x--|--|
--|--12xxx-12xxx-12x-12xxx-12xxx-12x-12xxx-12xxx-12x-12xxx-12xxx-12x--|--|
--|-------------------------------------------------------------------|--|
--|-------------------------------------------------------------------|--|
--|-------------------------------------------------------------------|--|

Verse Wah off

--|-----------------------------------------------|----------|--------|--|
--|-----------------------------------------------|----------|--9--9--|--|
--|------------------------------7----7-7-7-77-7--|--9-9-97--|--7--7--|--|
--|--9-9-9-99-9--7-7-7-77-7--7-9---9--------------|--7-7-77--|--9--9--|--|
--|-----------------------------------------------|----------|--7--7--|--|
--|-----------------------------------------------|----------|--------|--|

Pre Chorus

--|-----------------|-----12^----0-0-0--0-0-0--0-0-0--0-0-0--0--0--0--|--|
--|-----------------|-----12^---171717-151515-121212-101010-12-15-17--|--|
--|-----------------|-----12^-----------------------------------------|--|
--|-----------------|-------------------------------------------------|--|
--|--------------7--|-------------------------------------------------|--|
--|--0-3/7-0-5h7----|--0----------------------------------------------|--|

Chorus

Emin   Cbmaj   Gmaj   Dmaj
Why go home    Why go home

Solo

I dont know exactly what hes playing but I'll give the first two opening licks

e-|-------------------------------------------------------------------|--|
B-|--------12-15p12--12h15p12--12h15p12--12h15p12--12h15p12-----------|--|
G-|--14b16---------14--------14--------14--------14--------14--ect.---|--|
D-|-------------------------------------------------------------------|--|
A-|-------------------------------------------------------------------|--|
E-|-------------------------------------------------------------------|--|

--|--15-12-14-12----12-15-12-14-12----12-15-12-14-12----12-15-12-14-12|--|
--|--------------15----------------15----------------15--------etc.---|--|
--|-------------------------------------------------------------------|--|
--|-------------------------------------------------------------------|--|
--|-------------------------------------------------------------------|--|
--|-------------------------------------------------------------------|--|

Any Questions or critism is welcomed
Добавлено: 25.03.2012
Другие материалы по этой песне:

Страница создана 29.02.2012
http://primanota.ru/pearl-jam/why-go-chords.htm
Привет, Гость.
Предлагаем пройти революционный курс по гитаре.
Подарок от PrimaNota.Ru, забирай!