PrimaNota.ru - самый крупный в мире бесплатный архив песенных текстов, аккордов, табулатур и нот


Pearl Jam - Sleight Of Hand - аккорды и текст, таба, видео

Регистрация Запомнить меня
Войти через:  Facebook Google Twitter Vk Yandex Mail.ru

Pearl Jam - Sleight Of Hand - аккорды и текст, таба, видео

Печатать
Просмотров: 191
Sleight Of Hand
Pearl Jam
PEARL JAM ^Ö SLEIGHT OF HAND

>From Pearl Jam live at Katowice

Transcribed by Michael Bureau
Corrections can be e-mailed to riot_act10@hotmail.com

This is one of the greatest Pj songs, it^Òs easy to learn and has great 
lyrics.  Listen to the song for the timing and order.

Verses:

E|------------------------------------------------------------------|
b|-----3------------2----------------------------------------------|
g|---4---2-------4---2---------2-2-------------0-----------0--|
d|-2-----------2--------------4-----------2/4/5----------0----|
a|---------------------------2-----------0--------------2---------|
e|-----------------------------------------------------3-----------|

Pre-Chorus:

  Em       Dmaj      D           Dmaj
|---0-----|-----3----|---2-----|---3-----|
|---0-----|-----3----|---3-----|---3-----|
|---0-----|-----2----|---2-----|---2-----|
|---2-----|-----0----|---0-----|---0-----|
|---2-----|-----------|----------|----------|
|---0-----|-----------|----------|----------|

Chorus:

     A         G
|---0---|----3--|
|---2---|----3--|
|---2---|----0--|
|---2---|----0--|
|---0---|----2--|
|--------|----3--|

_________________________________________________________________
     
Добавлено: 26.11.2013
Другие материалы по этой песне:
  • Аккорды и текст

Страница создана 16.04.2012
http://primanota.ru/pearl-jam/sleight-of-hand-chords.htm
Привет, Гость.
Предлагаем пройти революционный курс по гитаре.
Подарок от PrimaNota.Ru, забирай!