PrimaNota.ru - самый крупный в мире бесплатный архив песенных текстов, аккордов, табулатур и нот


Pearl Jam - Satan - аккорды и текст, видео

Регистрация Запомнить меня
Войти через:  Facebook Google Twitter Vk Yandex Mail.ru

Pearl Jam - Satan - аккорды и текст, видео

Печатать
Просмотров: 86
Satan
Pearl Jam
Intro+verse+Guitar solo
[---------------------------------------
---------------------------------------
--------4-0-4-0-4-0----------------
--0-0------------------4-3----------]
chorus
[----------------------------
----------------------------
-3-3--------5------------
-------3--------5---------]
Добавлено: 02.09.2013
Другие материалы по этой песне:
  • Аккорды и текст

Страница создана 02.09.2013
http://primanota.ru/pearl-jam/satan-chords.htm
Привет, Гость.
Предлагаем пройти революционный курс по гитаре.
Подарок от PrimaNota.Ru, забирай!