PrimaNota.ru - самый крупный в мире бесплатный архив песенных текстов, аккордов, табулатур и нот


Pearl Jam - Parting Ways - аккорды и текст, таба, видео

Регистрация Запомнить меня
Войти через:  Facebook Google Twitter Vk Yandex Mail.ru

Pearl Jam - Parting Ways - аккорды и текст, таба, видео

Печатать
Просмотров: 163
Parting Ways
Pearl Jam
Artist: Pearl Jam

Song: Parting Ways

Album: Binaural (2000)

Tabbed by: John Cuneo



Verse:


     E                       A

e:-------000---0000---0000000000-000-----------0-000-----------
B:-------000---0000---0000000002-202-22320-02--2-202-22320-02--
G:-------101---2101---1014441212-222-222222--2-2-222-222222--2-
D:-----2-222-2-2222-2-2222222222-222-22222----22-222-22222----2
A:-----2-222-2-2222-2-2222222220-000-00000-----0-000-00000-----
E:-----0-----0------0------------------------------------------




Chorus:


     F#     G      E

e:-----2------3------0-000---0000------------------------------
B:-----2------3------0-000---0000------------------------------
G:-----3------4------1-101---2101------------REPEAT------------
D:-----4------5------2-222-2-2222------------------------------
A:-----4------5------2-222-2-2222------------------------------
E:-----2------3------0-----0-----------------------------------
     
Добавлено: 17.06.2013
Другие материалы по этой песне:

Страница создана 19.04.2012
http://primanota.ru/pearl-jam/parting-ways-chords.htm
Привет, Гость.
Предлагаем пройти революционный курс по гитаре.
Подарок от PrimaNota.Ru, забирай!