PrimaNota.ru - самый крупный в мире бесплатный архив песенных текстов, аккордов, табулатур и нот


Pearl Jam - Im Open - текст песни, таба, бас-таба, видео

Регистрация Запомнить меня
Войти через:  Facebook Google Twitter Vk Yandex Mail.ru

Pearl Jam - Im Open - текст песни, таба, бас-таба, видео

Печатать
Просмотров: 178
Уроки эстрадного вокала в Санкт-Петербурге
"I'm Open" by Pearl Jam
Words...Irons/Vedder
Music...P.J
>From the album "No Code"


I searched almost all tablatures sites on the web and I didn't  find any
transcripton  about  this music. This music it's not one of my favorites
but I think that the lyric it's fantastic.
I think of this music not only as music but as a beautiful poetry.
Enjoy...

                               "I'm Open"


Part 1

e-----1-----1-----1------1------1-----3---------------|
B-------4-----4-----4------4------4-----4-------------|
G---------3----3------3-------------3-----3-----------|
D-----------------------------------------------------|
A-----------------------------------------------------|
E-----------------------------------------------------|
Repeat this part until Vedder start singing "come on in", then play this:

Part 2

e--6--4------------4--6--6--6--6--4-----------4--6--6--6--6------------------|
B--------7--6--7---------------------7--6--7---------------------------------|
G----------------------------------------------------------------------------|
D----------------------------------------------------------------------------|
A----------------------------------------------------------------------------|
E----------------------------------------------------------------------------|
Repeat this Part until Vedder start singing "I'm open" again. Then repeat

Part 1 (In this part the second guitar lightly strums D#5).

D#5---->    x 6 8 8 x x

Repeat Part 2 whenever Vedder sings "come on in".

End with Part 1(second guitar keep on struming D#5 until the end)

Part 1
I'm open (2X)
Part 2
Come on in (4X)
Part 1
I'm open (2X)
Part 2
Come on in (4X)

Part 1


Send sugestions and corrections...
(Bsun@mail.pt) or (neoflying@hotmail.com)
António Manuel Lopes Gomes
Portugal.
Live and Fly...
     
Добавлено: 08.12.2013
Другие материалы по этой песне:

Страница создана 21.02.2012
http://primanota.ru/pearl-jam/im-open-chords.htm
Привет, Гость.
Предлагаем пройти революционный курс по гитаре.
Подарок от PrimaNota.Ru, забирай!