PrimaNota.ru - самый крупный в мире бесплатный архив песенных текстов, аккордов, табулатур и нот


Pearl Jam - Green Disease - текст песни, таба, бас-таба, видео

Регистрация Запомнить меня
Войти через:  Facebook Google Twitter Vk Yandex Mail.ru

Pearl Jam - Green Disease - текст песни, таба, бас-таба, видео

Печатать
Просмотров: 178
Авторы музыки: Eddie Vedder
Авторы текста: Eddie Vedder
AAuthor/Artist: Pearl Jam
Title: Green Disease
/ slide up
h hammer on

-------|------|--------|--|---------|--|---------|--|-------------|--|--------|
-------|------|-5------|--|---------|--|---------|--|-------------|--|--------|
-------|-2-0--|---2-0--|--|---------|--|---------|--|-------------|--|--------|
-------|------|--------|--|---------|4x|---------|4x|-------------|2x|--------|
-------|------|--------|--|-0-0-0-0-|--|---------|--|-------------|--|--------|
-------|------|--------|--|---------|--|-0-0-0-0-|--|-7--9--5--7--|--|--------|
        Intro               Bass         Bass         Hee hah

-------|---------------------4-4------4-4----|--|-----------------------------|
-------|----------------------4-4------5-5---|--|-----------------------------|
-------|-------------------------------------|--|-----------------------------|
-------|-------------------------------------|--|-----------------------------|
-------|-------------------------------------|--|-----------------------------|
-------|-9----7---4---6---4---------0--------|--|-----------------------------|
         Verse G1 strum each



-------|--------------------------------|-------------------------------------|
-------|--------9------9------9------7--|-------------------------------------|
-------|------8------9------8------8----|-------------------------------------|
-------|-9/11------9------9------8------|-------------------------------------|
-------|--------------------------------|-------------------------------------|
-------|--------------------------------|-------------------------------------|
         Verse G2

-------|-x-------|------------------------------------------------------------|
-------|-5-------|------------------------------------------------------------|
-------|-2-------|------------------------------------------------------------|
-------|---------|------------------------------------------------------------|
-------|---------|------------------------------------------------------------|
-------|---------|------------------------------------------------------------|
        w/ Intro Riff

-------|-x-------x-x------x------4---x------x-x-----x-------------------------|
-------|-2-------2-2------3----------2------2-2-----3-------------------------|
-------|-2---1---2-2--1---2---1------2---1--2-2--1--2-------------------------|
-------|-----2--------2-------2----------2-------2-----0-0-0-0-0-0-0-0-4-4-4--|
-------|----------------------------------------------------------------------|
-------|----------------------------------------------------------------------|
        Chorus

-----------|--|---------------------------------------------------------------|
-----------|--|---------------------------------------------------------------|
-----------|--|---------------------------------------------------------------|
-4-0-0-0-0-|2x|---------------------------------------------------------------|
-----------|--|---------------------------------------------------------------|
-----------|--|---------------------------------------------------------------|


-------|---------------------------|--|----------------|----------------------|
-------|---------------------------|--|----------------|----------------------|
-------|---------------------------|--|----------------|----------------------|
-------|-x----x--x-x-------x--x----|--|----------------|----------------------|
-------|-0h4--4--4-4--5-5--7--7-7--|--|----------------|----------------------|
-------|-0----0--0-0-------0--0-0--|--|----------------|----------------------|
         Interlude                       Outro = Intro
Добавлено: 12.03.2012
Другие материалы по этой песне:

Страница создана 12.03.2012
http://primanota.ru/pearl-jam/green-disease-chords.htm
Привет, Гость.
Предлагаем пройти революционный курс по гитаре.
Подарок от PrimaNota.Ru, забирай!