PrimaNota.ru - самый крупный в мире бесплатный архив песенных текстов, аккордов, табулатур и нот


Pearl Jam - Goat - аккорды и текст, таба, видео

Регистрация Запомнить меня
Войти через:  Facebook Google Twitter Vk Yandex Mail.ru

Pearl Jam - Goat - аккорды и текст, таба, видео

Печатать
Просмотров: 146
Goat
Pearl Jam
		   Author/Artist: Pearl Jam
Title: Goat
Transcribed by: Evan Cowan
Email: ecowan@uclink4.berkeley.edu

p.m. --> palm mute
Recording is slightly sharp

-|----------------------------------------------------------|-----------------
-|----------------------------------------------------------|-----------------
-|----------------------------------------------------------|-----------------
-|-x--x--x--3------------------------------3----------------|-----------------
-|-x--x--x--3--------------3-3-3-3-3-3-3---3----------------|-----------------
-|-x--x--x--1----1--1--1---1-1-1-1-1-1-1---1-1-1-1-1-1-1-1--|-----------------
 G             p.m.----| p.m.----------|    p.m.---------|

-|-------------------------------------|--------------------------------------
-|-------------------------------------|--------------------------------------
-|-------------------------------------|--------------------------------------
-|--4-4-4-4---------3------------------|--------------------------------------
-|--4-4-4-4-4-4-4---3------------------|--------------------------------------
-|--2-2-2-2-2-2-2---1--1-1-1-1-1-1-1---|--------------------------------------
 G                   p.m.----------|

-|----------------------------------------|-----------------------------------
-|----------------------------------------|-----------------------------------
-|----------------------------------------|-----------------------------------
-|---4----4----4--------------------------|-----------------------------------
-|---4----4----4----4----3-----------3----|-----------------------------------
-|---2----2----2----2----1-1-1-1-1-1-1-1--|-----------------------------------
 G She was an evil little goat goat goat

-|----------------------------------------|-----------------------------------
-|----------------------------------------|-----------------------------------
-|----------------------------------------|-----------------------------------
-|---4----4----4--------------------------|-----------------------------------
-|---4----4----4----------3-----3-----3---|-----------------------------------
-|---2----2----2----------1-1-1-1-1-1-1---|-----------------------------------
 G She was an evil little goat goat goat

-|------------------------------------------|---------------------------------
-|------------------------------------------|---------------------------------
-|------------------------------------------|---------------------------------
-|------------------------------------------|---------------------------------
-|--4--4--4--4--4--4--4-----3----3-----3----|---------------------------------
-|--2--2--2--2--2--2--2--1--1----1-1-1-1----|---------------------------------
 G She was an evil little goat  goat  goat

-|----------------------------------------------------------------|-----------
-|----------------------------------------------------------------|-----------
-|----------------------------------------------------------------|-----------
-|----------4--4--4--4--4--3----3----3------------4--4--4--4------|-----------
-|----------4--4--4--4--4--3----3----3------------4--4--4--4------|-----------
-|----------2--2--2--2--2--1----1----1------------2--2--2--2------|-----------
 G She was an evil little goat goat goat  she was an evil little

-|-----------------------------------------|----------------------------------
-|-----------------------------------------|----------------------------------
-|-----------------------------------------|----------------------------------
-|---3----3----3---------------------------|----------------------------------
-|---3----3----3----4--4--4--4--4--4--3----|----------------------------------
-|---1----1----1----2--2--2--2--2--2--1----|----------------------------------
 G They brought her back from Scandinavia

-|------------------------------------------|---------------------------------
-|------------------------------------------|---------------------------------
-|------------------------------------------|---------------------------------
-|---3----3-----3---------------------------|---------------------------------
-|---3----3-----3---------------------------|---------------------------------
-|---1--1-1-1-1-1---2--2--2--2--2--2--1-----|---------------------------------
 G She went in the mountains and they closed anew   --not sure of lyrics

-|-------------------------------------------|--------------------------------
-|-------------------------------------------|--------------------------------
-|-------------------------------------------|--------------------------------
-|---3----3----3-----------------------------|--------------------------------
-|---3----3----3-------------4--4--4--3------|--------------------------------
-|---1----1----1----2--2--2--2--2--2--1------|--------------------------------
 G She knew the mountains a little dangerous

-|--------------------------------------|-------------------------------------
-|--------------------------------------|-------------------------------------
-|--------------------------------------|-------------------------------------
-|---3----3----3------------------------|-------------------------------------
-|---3----3----3------------------------|-------------------------------------
-|---1----1----1----2--2--2--2--2--2--2-|-------------------------------------
 G She is the one and she was an evil

-|--------------------------------------------|-------------------------------
-|--------------------------------------------|-------------------------------
-|--------------------------------------------|-------------------------------
-|--------------------------------------------|-------------------------------
-|--3----3----3-------------------------------|-------------------------------
-|--1----1----1-----2--2--2--2--2--2--1-------|-------------------------------
 G Goat goat goat  she was an evil little  3x

-|-----------------------------------------|----------------------------------
-|-----------------------------------------|----------------------------------
-|-----------------------------------------|----------------------------------
-|-----------------------------------------|----------------------------------
-|--3----3----3--------4--4--4--4--4--3----|----------------------------------
-|--1----1----1-----2--2--2--2--2--2--1----|----------------------------------
 G Goat goat goat          Baaahhh

-|--------------------------------------------------------------------------|-
-|--------------------------------------------------------------------------|-
-|--------------------------------------------------------------------------|-
-|--------3----3-------------------------3----3-----------------------------|-
-|--3-----3----3----------4--4--4--4-----3----3----3----------4--4--4--4--3-|-
-|--1-1-1-1----1----2--2--2--2--2--2--1--1----1----1----2--2--2--2--2--2--1-|-
 G                      Baaahhh          Baaahhh              Baaahhh

-|--------------------------------------------------------------------------|-
-|--------------------------------------------------------------------------|-
-|--------------------------------------------------------------------------|-
-|--3----3----3-------------------------3----------3------------------------|-
-|--3----3----3----------4--4--4--4-----3----3---3-3----------4--4--4--4--3-|-
-|--1----1----1----2--2--2--2--2--2--1--1----1---1-1----2--2--2--2--2--2--1-|-
 G               Baaahhh                             she was an evil little

-|---------------------------------------|------------------------------------
-|---------------------------------------|------------------------------------
-|---------------------------------------|------------------------------------
-|---3----3------------------------------|------------------------------------
-|---3----3----3----4--4--4--4--4--4-----|------------------------------------
-|---1----1----1----2--2--2--2--2--2--1--|------------------------------------
 G  Goat goat goat she was an evil little

-|----------------------------------------|-----------------------------------
-|----------------------------------------|-----------------------------------
-|----------------------------------------|-----------------------------------
-|----------------------------------------|-----------------------------------
-|---3----3---3-3----4--4--4--4--4--4-----|-----------------------------------
-|---1----1---1-1----2--2--2--2--2--2--1--|-----------------------------------
 G  Goat goat  goat she was an evil little 115

-|----------------------------------------|-----------------------------------
-|----------------------------------------|-----------------------------------
-|----------------------------------------|-----------------------------------
-|----------------------------------------|-----------------------------------
-|---3----3---3-3-------------------------|-----------------------------------
-|---1----1---1-1----2--2--2--2--2--2--1--|-----------------------------------
 G Goat goat uh goat she was an evil little

-|--------------------------------------|-------------------------------------
-|--------------------------------------|-------------------------------------
-|------------2-------------------------|-------------------------------------
-|--3----3----3-------------------------|-------------------------------------
-|--3----3----3-------------------------|-------------------------------------
-|--1----1----1-------------------------|-------------------------------------
 G Goat         she was an evil little

-|-*16----13----16--13------------13-----*16----16----16--15---------|--------
-|---/------------------13---16------------/------------------16-15--|--------
-|---/-------------------------------------/-------------------------|--------
-|-------------------------------------------------------------------|--------
-|-------------------------------------------------------------------|--------
-|-------------------------------------------------------------------|--------
 G Goat (*trem pick)

-|-------------------------------|--------------------------------------------
-|--16b18r16-16-15-16-13---------|--------------------------------------------
-|-----------------------15b16---|--------------------------------------------
-|-------------------------------|--------------------------------------------
-|-------------------------------|--------------------------------------------
-|-------------------------------|--------------------------------------------
 G

-|--------13--------13---------13--------16-13----13----16-13----------13---|-
-|-13--16-----13-16-----13--16-----13-16-------16----16-------16-13h16----x-|-
-|--------------------------------------------------------------------------|-
-|--------------------------------------------------------------------------|-
-|--------------------------------------------------------------------------|-
-|--------------------------------------------------------------------------|-
 G

-|---------13--------||-------------------------------------------------------
-|--13--16-----------||-------------------------------------------------------
-|-------------------||-------------------------------------------------------
-|--------------3----||-------------------------------------------------------
-|-------------------||-------------------------------------------------------
-|--------------1----||-------------------------------------------------------
 G     
Добавлено: 26.06.2013
Другие материалы по этой песне:
  • Аккорды и текст

Страница создана 04.05.2012
http://primanota.ru/pearl-jam/goat-chords.htm
Привет, Гость.
Предлагаем пройти революционный курс по гитаре.
Подарок от PrimaNota.Ru, забирай!