PrimaNota.ru - самый крупный в мире бесплатный архив песенных текстов, аккордов, табулатур и нот


Pearl Jam - Go - аккорды и текст, таба, бас-таба, видео

Регистрация Запомнить меня
Войти через:  Facebook Google Twitter Vk Yandex Mail.ru

Pearl Jam - Go - аккорды и текст, таба, бас-таба, видео

Печатать
Просмотров: 189
Уроки эстрадного вокала в Санкт-Петербурге
Авторы музыки: Mike McCready, Eddie Vedder, Jeff Ament, Stone Gossard, Dave Abbruzzese
Авторы текста: Eddie Vedder
Go
Pearl Jam
		   Go - Pearl Jam
                            Off the vs. album
All in all a pretty easy rhythm section
I think all the complication in this song is within the speed and timing.
I haven't tabbed the solo but e-mail me at: Planet.telex@bigfoot.com and
I might think about it! Tabbed by John Faulding.


        GO - PEARL JAM    INTRO (w/random pickings):
E-------------------------------------------------------||--------------
B-------------------------------------------------------||--------------
G---4:--------------x--------7--7--------5-----5--------||--------------
D---4:-----------------x--5--7--7--------5-----5-----4--||--------------
A-------------------------5--x--5--4--3--3--3--3--2--2--||--------------
D----------(12)-----------------------------------------||--------------


    Drums/Bass enter, bass playing twice:
E---------------------------|--------------------------|----------------
B---------------------------|--------------------------|----------------
G---------------------------|--------------------------|----------------
D---------------------------|--------------------------|----------------
A------------------2p0------|-----------------2p0------|----------------
D---0-----2-----3-------3^--|--0-----2-----3-------3^--|----------------


                      Guitar lick over bass (second time)
E--------------------------------------------------------||-------------
B---------------------5-----7--8-----10-----8h10p8\7-----||-------------
G--------------------------------------------------------||-------------
D--------------------------------------------------------||-------------
A--------------------------------------------------------||-------------
D--------------------------------------------------------||-------------


                           Loud power chords
E------------------||---------------------------------------------------
B------------------||---------------------------------------------------
G------------------||--7:-----7-----7--7--6-----7--7--7--6--------------
D------------------||--8:-----7-----7--7--6-----7--7--7--6--------------
A------------------||---------5-----5--5--4-----5--5--5--4--------------
D------------------||---------------------------------------------------


                                                       VERSE:
E-----------------------------------------------------------------------
B-----------------------------------------------------------------------
G-----------------------------------------------------------------------
D-----------------------------------------------------------------------
A-----------------------------------------------------------------------
D-----------------------------------------------------------------------


                Repeated 4 times
E------||-------------------------------------||------------------------
B------||-------------------------------------||------------------------
G------||*--4:--------------------------------||------------------------
D------||*--4:--0-----------------------------||------------------------
A------||-------0--------------2p0------------||------------------------
D------||-------0-----2-----3-------3^--x--x--||------------------------


    "Oh please don't go out on me..."
E---------------------------||-----||-----------------------------------
B---------------------------||-----||-----------------------------------
G---------------------------||-----||-----------------------------------
D---0-----------------------||-----||--0--------------------------------
A---0-----------2p0---------||-----||--0--------------2p0---------------
D---0--2-----3-------3^--x--||-----||--0-----2-----3-------3^--x--x-----



E---||--------------------------------------||--------------------------
B---||--------------------------------------||--------------------------
G---||--------------------------------------||--------------------------
D---||--0-----------------------------------||--0-----------------------
A---||--0--------------2p0------------------||--0--------------2p0------
D---||--0-----2-----3-------3^--x--x--------||--0-----2-----3-----------



E-------------||-----------------------------------||-------------------
B-------------||-----------------------------------||-------------------
G-------------||-----------------------------------||-------------------
D-------------||--0--------------------------------||--0----------------
A-------------||--0--------------2p0---------------||--0----------------
D---3^--x--x--||--0-----2-----3-------3^--x--x-----||--0-----2-----3----



E------------------||--------------------------------------------||-----
B------------------||--------------------------------------------||-----
G------------------||--------------------------------------------||-----
D------------------||--0-----------------------------------------||-----
A---2p0------------||--0--------------2p0------------------------||-----
D--------3^--x--x--||--0-----2-----3-------3^--x--x--------------||-----


       "Despite of it all..."
E---------------------------------||--------------------||--------------
B---------------------------------||--------------------||--------------
G---------------------------------||--------------------||--------------
D---0-----------------------------||--------------------||--------------
A---0--------------2p0------------||--------------------||--------------
D---0-----2-----3-------3^--x--x--||--------------------||--------------


    PRE-CHORUS:
E------------------|--------------------||------------------------------
B------------------|--------------------||------------------------------
G---7--7--7--7--6--|--7--7--7--6--4-----||------------------------------
D---7--7--7--7--6--|--7--7--7--6--4--2--||------------------------------
A---5--5--5--5--4--|--5--5--5--4--2--0--||------------------------------
D------------------|--------------------||------------------------------


    (REPEAT VERSE & PRE-CHORUS)
E------------------------------------------||---------------------------
B------------------------------------------||---------------------------
G------------------------------------------||---------------------------
D------------------------------------------||---------------------------
A------------------------------------------||---------------------------
D------------------------------------------||---------------------------


    "Please please please please please.."
E-----------------------------------------------------------------------
B-----------------------------------------------------------------------
G------------------------------------------------------5--7-------------
D------------------------------------------3--3--3--3--5--7-------------
A------------------------------------------3--3--3--3--3--5-------------
D------------------------------------------3--3--3--3-------------------


    "Don't go on on me!" (Repeated)
E------------------------------------------||---------------------------
B------------------------------------------||---------------------------
G---7--7--7--7-----------------------------||---------------------------
D---7--7--7--7-----------------------------||---------------------------
A---5--5--5--5-----------------------------||---------------------------
D------------------------------------------||---------------------------


    Lead lick behind chorus:
E---10--10--10--10--10--10--10--8--10--8--10--8--10--8--10--8--10-------
B-----------------------------------------------------------------------
G-----------------------------------------------------------------------
D-----------------------------------------------------------------------
A-----------------------------------------------------------------------
D-----------------------------------------------------------------------



E-------8--10--8-----10--8--10--8--10--8--10--8---------10-----8--10----
B---10-------------------------------------------8--10------8-----------
G-----------------8-----------------------------------------------------
D-----------------------------------------------------------------------
A-----------------------------------------------------------------------
D-----------------------------------------------------------------------


                                 REPEAT VERSE (NO VOCALS)
E---8--10p8---p6p5p4p2p0--||--------------------------------------------
B-------------------------||--------------------------------------------
G-------------------------||--------------------------------------------
D-------------------------||--------------------------------------------
A-------------------------||--------------------------------------------
D-------------------------||--------------------------------------------


    AND PRE-CHORUS              REPEAT CHORUS
E---------------------------||--------------------------||--------------
B---------------------------||--------------------------||--------------
G---------------------------||--------------------------||--------------
D---------------------------||--------------------------||--------------
A---------------------------||--------------------------||--------------
D---------------------------||--------------------------||--------------


    Outro solo:
E-----------------------------------------------------------------------
B---15------15------17------17------18------18---20------20---22--------
G---17^-----17^-----19^-----19^-----20^-----20^--22^-----22^--24^-------
D-----------------------------------------------------------------------
A-----------------------------------------------------------------------
D-----------------------------------------------------------------------



E------------------------------------------------||---------------------
B---22---22---22---22^--22^--22^--22^--22^--22^--||---------------------
G---24^--24^--24^--------------------------------||---------------------
D------------------------------------------------||---------------------
A------------------------------------------------||---------------------
D------------------------------------------------||---------------------




========================================================================
==                       TABLATURE EXPLANATION                        ==
========================================================================

----------                ----------                ----t---
----5h8--- Hammeron       ----(8)--- Ghost          ----6--- Tap
----------                ---------- Note           --------
----5p8--- Pulloff        ----------                --------

----------                ----------                -----p--
----5/8--- Slide Up       -----x---- Dead           -----7-- Pop
----------                ---------- Note           --s-----
----5\8--- Slide Down     ----------                --5----- Slap

----------                ||------|| Repeat         --------
----5~~~-- Vibrato        ||*----*||                ---5^--- Bend
----------                ||*----*||                --------
----------                ||------||                --------

----------                ----------                --------
-4:------- Time           ----------                --------
-4:------- Signature      ----------                --------
----------                ----------                --------

Rhythm:
  w = whole note            W = dotted whole
  h = half note             H = dotted half
  q = quarter note          Q = dotted quarter
  e = eighth note           E = dotted eighth
  s = sixteenth note        S = dotted sixteenth
  t = 32nd note             T = dotted 32nd
  x = 64th note             X = dotted 64th
  ^ = triplet



LYRICS:
=======

Oh please don't go out on me
Don't go on me now
Never acted up before
Don't go on me now
I swear I never took it for granted
Just thought of it now
Suppose I abused you
Just passing it on

Once fastened servile
Now your getting sharp
Moving oh so swiftly
With such disarm
I pulled the covers over him
Shoulda' pulled the alarm
Turned to my nemesis
A full on fucking god

Please don't go on me
Don't go on me
Don't go on me
Don't go on me
Please don't go on me

Don't go on me
Don't go on me
Don't go on me
Don't go on me
Don't you want me
Don't go on me
Don't go on me     
Добавлено: 14.06.2013
Другие материалы по этой песне:

Страница создана 04.03.2012
http://primanota.ru/pearl-jam/go-chords.htm
Привет, Гость.
Предлагаем пройти революционный курс по гитаре.
Подарок от PrimaNota.Ru, забирай!