PrimaNota.ru - самый крупный в мире бесплатный архив песенных текстов, аккордов, табулатур и нот


Pearl Jam - Face of Love - таба, видео

Регистрация Запомнить меня
Войти через:  Facebook Google Twitter Vk Yandex Mail.ru

Pearl Jam - Face of Love - таба, видео

Печатать
Просмотров: 93
Author/Artist: Pearl Jam
Title: Face Of Love
Album: ???
Transcribed by: Chris Wilson
Email: yokel@zip.com.au
(07/06/99)

With a little help from Evan Cowan.
Gtr. 1 is in Open - D

Citar Solo Coming Soon.

-|-----------0--------0---------------0-0-0-0--|------------------------------
-|-------------0----0---0-------------0-0-0-0--|------------------------------
-|---------------------------------------------|------------------------------
-|------0-----------------------0--------------|------------------------------
-|--0-4---0------5----------0-4---0------------|------------------------------
-|----------0-----------------------0----------|------------------------------
Gtr.1 Intro Fingerpicking

-|-----------0---0------------0-----0-----------0-0-0-----------0-0-0--|------
-|-------------0---0------------0-0-------------0-0-0-----------0-0-0--|------
-|--2-0-2-3-----------2-0-2-0----------2-0-2-5---------2-0-2-3---------|------
-|---------------------------------------------------------------------|------
-|---------------------------------------------------------------------|------
-|---------------------------------------------------------------------|------


-|------------0--------0-0---------------|------------------------------------
-|--------------0----0-----0-------------|------------------------------------
-|---------------------------------------|------------------------------------
-|------0----------0-------------0-------|------------------------------------
-|--0-4---0------------------0-4---0-----|------------------------------------
-|----------0------------------------0---|------------------------------------


-|-----------0---0-------------0---0-------------0-0-0----------0-----0--|----
-|-------------0---0-------------0---0-----------0-0-0------------0-0----|----
-|--2-0-2-3-----------2-0-2-0-----------2-0-2-5--------2-0-2-3-----------|----
-|-----------------------------------------------------------------------|----
-|-----------------------------------------------------------------------|----
-|-----------------------------------------------------------------------|----
Verse Gtr.1 Fingerpicking

-|-----------0---0-------------0---0----|-------------------------------------
-|-------------0---0-------------0---0--|-------------------------------------
-|--------6-----------2-0-2--0----------|-------------------------------------
-|--6-4-6--------------------0----------|-------------------------------------
-|---------------------------0----------|-------------------------------------
-|--------------------------------------|-------------------------------------


-|-------------------|--------------------------------------------------------
-|-------------------|--------------------------------------------------------
-|-------------------|--------------------------------------------------------
-|------0-4-2--------|--------------------------------------------------------
-|--0-4--------------|--------------------------------------------------------
-|------------3-2-0--|--------------------------------------------------------
Fill

-|--------------------------------------------------------------------------|-
-|--------------------------------------------------------------------------|-
-|--------------------------------------------------------------------------|-
-|--------------------------------------------------------------------------|-
-|--------------------------------------------------------------------------|-
-|--------------------------------------------------------------------------|-
Citar Solo (Coming Soon)
Добавлено: 18.05.2012
Другие материалы по этой песне:
  • Аккорды и текст

Страница создана 18.05.2012
http://primanota.ru/pearl-jam/face-of-love-chords.htm
Привет, Гость.
Предлагаем пройти революционный курс по гитаре.
Подарок от PrimaNota.Ru, забирай!