PrimaNota.ru - самый крупный в мире бесплатный архив песенных текстов, аккордов, табулатур и нот


Pearl Jam - Elderly Woman Behind The Counter In A Small Town - аккорды и текст, таба, видео

Регистрация Запомнить меня
Войти через:  Facebook Google Twitter Vk Yandex Mail.ru

Pearl Jam - Elderly Woman Behind The Counter In A Small Town - аккорды и текст, таба, видео

Печатать
Просмотров: 114
Авторы музыки: Mike McCready, Eddie Vedder, Jeff Ament, Stone Gossard, Dave Abbruzzese
Авторы текста: Eddie Vedder
Elderly Woman Behind The Counter In A Small Town
Pearl Jam



Date: Sat, 14 Jul 2001 03:18:16 -0400
From: sander p 
Subject: p/pearl_jam/elderly_woman_behind_the_counter_in_a_small_town.crd

Band: Pearl Jam
Song: Elderly Woman Behind The Counter In A Small Town
Tuning: Standard Acoustic Guitar
Tabbed By $@nder

Verse/Chorus
|--2--2-2-3----3--3-3-3----3--3-3-3-3-3-3----3--3-3-3-3-3-3-3-|
|--3--3-3-3----3--3-3-3----3--3-3-3-3-3-3----3--3-3-3-3-3-3-3-|
|--2--2-2-2----0--0-0-0----0--0-0-0-0-0-0----0--0-0-0-0-0-0-0-|
|--0--0-0-0----2--2-2-2----0--0-0-0-0-0-0----2--2-2-2-2-2-2-2-|
|--------------3--3-3-3----2--2-2-2-2-2-2----3--3-3-3-3-3-3-3-|
|-------------------------------------------------------------|
PreChorus
|---------------0-0-0-0-0-----------------0-0-0-0-0----3-3-3-3-3--|
|--1-1-1-1-1----0-0-0-0-0----1-1-1-1-1----0-0-0-0-0----3-3-3-3-3--|
|--0-0-0-0-0----2-2-2-2-2----0-0-0-0-0----2-2-2-2-2----0-0-0-0-0--|
|--2-2-2-2-2----2-2-2-2-2----2-2-2-2-2----2-2-2-2-2----2-2-2-2-2--|
|--3-3-3-3-3----0-0-0-0-0----3-3-3-3-3----0-0-0-0-0----3-3-3-3-3--|
|-----------------------------------------------------------------|


|--0-0-0-0-0----0-0-0-0-0-0-0-0-0-0-0-0-0-0--|
|--0-0-0-0-0----0-0-0-0-0-0-0-0-0-0-0-0-0-0--|
|--2-2-2-2-2----0-0-0-0-0-0-0-0-0-0-0-0-0-0--|
|--2-2-2-2-2----2-2-2-2-2-2-2-2-2-2----------|
|--0-0-0-0-0----2-2-2-2-2-2-2-2-2-2----------|
|---------------0-0-0-0-0-0-0-0-0-0----------|


Добавлено: 14.01.2014
Другие материалы по этой песне:

Страница создана 29.02.2012
http://primanota.ru/pearl-jam/elderly-woman-behind-the-counter-in-a-small-town-chords.htm
Привет, Гость.
Предлагаем пройти революционный курс по гитаре.
Подарок от PrimaNota.Ru, забирай!