PrimaNota.ru - самый крупный в мире бесплатный архив песенных текстов, аккордов, табулатур и нот


Pearl Jam - Dont Gimme No Lip - аккорды и текст, таба, бас-таба, видео

Регистрация Запомнить меня
Войти через:  Facebook Google Twitter Vk Yandex Mail.ru

Pearl Jam - Dont Gimme No Lip - аккорды и текст, таба, бас-таба, видео

Печатать
Просмотров: 168
Авторы музыки: Stone Gossard

Dont Gimme No Lip
Pearl Jam
Title: Don't Gimme No Lip

Artist: Pearl Jam

Written By: Stone Gossard

Album: Lost Dogs (2003)

Tabbed By: John Cuneo


Intro/Chorus:

REPEAT
    G5                                         C5       A5
e:---------------------------------------------------------
B:---------------------------------------------------------
G:---------------------------------------------------------
D:---5-----5--5--5--5-----------5----5--5--5----10-10-10-7-
A:---5-----5--5--5--5-----------5----5--5--5----10-10-10-7-
E:---3-----3--3--0--3-----------3----3--3--0----8--8--8--5-
    Don't gimme no lip....     Don't gimme no


Verse:

   G5                 F5             E5
e:---------------------------------------------------------
B:---------------------------------------------------------
G:---------------------------------------------------------
D:--5------------------3--------------2--------------------
A:--5------------------3--------------2--------------------
E:--3------------------1--------------0--------------------
   Don't gimme no lip,   I'm just not havin' it



"I don't cry over spilled milk, although it bothers me."
     
Добавлено: 16.09.2013
Другие материалы по этой песне:
  • Аккорды и текст

Страница создана 11.03.2012
http://primanota.ru/pearl-jam/dont-gimme-no-lip-chords.htm
Привет, Гость.
Предлагаем пройти революционный курс по гитаре.
Подарок от PrimaNota.Ru, забирай!