PrimaNota.ru - самый крупный в мире бесплатный архив песенных текстов, аккордов, табулатур и нот


Pearl Jam - Dock Of The Bay - аккорды и текст, таба, видео

Регистрация Запомнить меня
Войти через:  Facebook Google Twitter Vk Yandex Mail.ru

Pearl Jam - Dock Of The Bay - аккорды и текст, таба, видео

Печатать
Просмотров: 78
Dock Of The Bay
Pearl Jam
		   Author/Artist: Pearl Jam
Title: Dock Of The Bay (Live Cover)
Transcribed by: Evan Cowan
Email: ecowan@uclink4.berkeley.edu

This tab is of when they performed the song live with
Steve Cropper in 1994
It's hard to hear what the other guitar is doing under the
lead guitar so what's in the tab is a guess...I'm not sure if G
is even playing

-|-----|--------------------------------------------------------|-------------
-|-----|--------------------------------------------------------|-------------
-|-----|--------------------------------------------------------|-------------
-|-----|--------------------------------------------------------|-------------
-|-----|------3h5-3h5-------3h5-3h5-------3h5-3h5-------3h5-3h5-|-------------
-|-15\-|-3--3----------3--3----------3--3----------3--3---------|-------------
 G                                                           2x

Verse
-|---------------------------------------------------|------------------------
-|---------------------------------------------------|------------------------
-|---------0-----------------------------------------|------------------------
-|-----0-------0------------------------4--------4---|------------------------
-|----------------------0--2---4--5--6--------2------|------------------------
-|--3-------------3--3-------------------------------|------------------------
 G Sitting in the mornin' sun            I'll be

-|-------------------------------------------------------|--------------------
-|-------------------------------------------------------|--------------------
-|-------------------------------------------------------|--------------------
-|---------5-------2--1--0-------------------------------|--------------------
-|--2-/-3-------3-----------4----------------------------|--------------------
-|-------------------------------------------------------|--------------------
 G Sitting till the evenings done

-|-------------------------------------------------------|--------------------
-|--------------------------------2h3p2------------------|--------------------
-|---------------------------------------2h4p2-----------|--------------------
-|----------------------------------------------2h4p2----|--------------------
-|-----------------------------------------------------4-|--------------------
-|-------------------------------------------------------|--------------------
 G

-|------------------------------------------------|---------------------------
-|------------------------------------------------|---------------------------
-|-----------0---------------------------4--------|---------------------------
-|--------0------------------------------4--------|---------------------------
-|--------------------0--2-----4/5--5/6-----------|---------------------------
-|--3-----------3---------------------------------|---------------------------
 G Watching the ships roll in              and I

-|---------------10-------------------------------|---------------------------
-|---------------12-------------------------------|---------------------------
-|------------------------------------------------|---------------------------
-|------------------------------------------------|---------------------------
-|------------------------------------------------|---------------------------
-|------------------------------------------------|---------------------------
 G

-|-----------------------------------------|----------------------------------
-|--------1--------------------------------|----------------------------------
-|--------0--------------------------------|----------------------------------
-|-----2-----2--2--1--0--------------------|----------------------------------
-|--3--------------------4-----------------|----------------------------------
-|-----------------------------------------|----------------------------------
 G Watch em roll away again

-|-----------------------------------------|----------------------------------
-|--------------------------2---2h3p2------|----------------------------------
-|--------------------------2---2----------|----------------------------------
-|--------------------------2---2h4p2------|----------------------------------
-|------------------------------------4----|----------------------------------
-|-----------------------------------------|----------------------------------
 G

Chorus
-|------------------------------------------|---------------------------------
-|--------0---0-3-0-------------------------|---------------------------------
-|-----0------------------------------------|---------------------------------
-|------------------------------------------|---------------------------------
-|------------------------------------------|---------------------------------
-|--3--------------------------0------------|---------------------------------
 G Sitting on the dock of the bay

-|---------------------------------4\3/4----|---------------------------------
-|---------------------------------5\4/5----|---------------------------------
-|------------------------------------------|---------------------------------
-|------------------------------------------|---------------------------------
-|------------------------------------------|---------------------------------
-|------------------------------------------|---------------------------------
 G

-|--------------------------------------------------|-------------------------
-|-------------------0---0--------------------------|-------------------------
-|-----------------0---0----------------------------|-------------------------
-|--------------------------------------------------|-------------------------
-|--------------------------------------------------|-------------------------
-|---------------3-----------0----------------------|-------------------------
 G Watching the tide    go away

-|--------------------------------10\-9/10\-9/10----|-------------------------
-|--------------------------------12\11/12\11/12----|-------------------------
-|--------------------------------------------------|-------------------------
-|--------------------------------------------------|-------------------------
-|--------------------------------------------------|-------------------------
-|--------------------------------------------------|-------------------------
 G

-|------------------------------------------------------------------------|---
-|---------------------3--------------------------------0-----------------|---
-|----------2h4---2h4-----0--------------------------0--------------------|---
-|-----------------------------2------------------------------------------|---
-|-----------------------------0------------------------------------------|---
-|--3---------------------------------------------3-----------0-----------|---
 G Sitting on the dock of the bay        wasting time

-|------------------------------------5--------------------------4\3/4----|---
-|--------------------------------------5-----2-----------3-0----5\4/5----|---
-|----------------------------------6-----------2h4----0------------------|---
-|---------------------------------------------------5--------------------|---
-|------------------------------------------------------------------------|---
-|------------------------------------------------------------------------|---
 G

Verse
-|-----------------------------------------------|----------------------------
-|-----------------------------------------------|----------------------------
-|-----------------------------------------------|----------------------------
-|-----0--------------------4--------------------|----------------------------
-|--------------------0--2--------2--2-----------|----------------------------
-|--3--------------3-----------------------------|----------------------------
 G  I left my home in Georgia

-|------------------------------------16---------|----------------------------
-|--------------15--------------16-------16------|----------------------------
-|-14-14h16--16----14h16--16-16----16---------16-|----------------------------
-|-----------------------------------------------|----------------------------
-|-----------------------------------------------|----------------------------
-|-----------------------------------------------|----------------------------
 G

-|-----------------------------------------------------------------|----------
-|-----------------------------------------------3p2---------------|----------
-|---------------------------------------------------2---2h4--2----|----------
-|-----------------------------------------------------------------|----------
-|---3------3--3---3--2--1--0--------------------------------------|----------
-|-----------------------------------------------------------------|----------
 G  Headed for the 'Frisco bay

-|-----------------------------------------------------------------|----------
-|----------17------17-16----14------15p14-----15p14-----15p14-----|----------
-|--16/17------17---17-16-15-14---14-------14--------14--------14--|----------
-|-----------------------------------------------------------------|----------
-|-----------------------------------------------------------------|----------
-|-----------------------------------------------------------------|----------
 G

-|-------------------------------------------|--------------------------------
-|-------------------------------------------|--------------------------------
-|-------------------------------------------|--------------------------------
-|------0------------------------4-----------|--------------------------------
-|-----------------0--2----2--2-----2--------|--------------------------------
-|---3----3-----3----------------------------|--------------------------------
 G  I got nothing to live for         looks like

-|-------------------16-----------16---------|--------------------------------
-|--------------------------16-------16------|--------------------------------
-|-14h16--16---16-14-----16----16---------16-|--------------------------------
-|-------------------------------------------|--------------------------------
-|-------------------------------------------|--------------------------------
-|-------------------------------------------|--------------------------------
 G

-|-------------------------------------------------|--------------------------
-|-----------------------------3p2-----------------|--------------------------
-|---------------------------------2---------------|--------------------------
-|-------------------------------------------------|--------------------------
-|---3------3--3--3--2--1--0-----------------------|--------------------------
-|-------------------------------------------------|--------------------------
 G  Nothing's gonna come my way       yeah

-|-------------------------------------------------|--------------------------
-|-------------------------------14----14-------14-|--------------------------
-|-16/17----17-17-17-16-15-14-------14----14-14----|--------------------------
-|-------------------------------------------------|--------------------------
-|-------------------------------------------------|--------------------------
-|-------------------------------------------------|--------------------------
 G

Chorus
-|---------------------------------------|------------------------------------
-|---------------------------------------|------------------------------------
-|---------0-----------------------------|------------------------------------
-|------0------------0-------------------|------------------------------------
-|---------------------------------------|------------------------------------
-|---3------------------3-------0--------|------------------------------------
 G  Sitting on the dock of the bay

-|-----------------------------10--------|------------------------------------
-|--10h12--10h12--10h12-10-----12--------|------------------------------------
-|---------------------------------------|------------------------------------
-|---------------------------------------|------------------------------------
-|---------------------------------------|------------------------------------
-|---------------------------------------|------------------------------------
 G

-|------------------------------------------------|---------------------------
-|--------------------0---------------------------|---------------------------
-|------------------0---0-------------------------|---------------------------
-|------------------------------------------------|---------------------------
-|------------------------------------------------|---------------------------
-|---------------3------------0-------------------|---------------------------
 G Watching the tide     go away

-|---------------------10----10---10--------------|---------------------------
-|--------12-10-10h12--10h12-10---12------12---10-|---------------------------
-|-------------------------------------11---------|---------------------------
-|------------------------------------------------|---------------------------
-|------------------------------------------------|---------------------------
-|------------------------------------------------|---------------------------
 G

-|----------------------------------------------|-----------------------------
-|--------0-------------------------2-----------|-----------------------------
-|-----0-------------------------------2--------|-----------------------------
-|-------------------------------2--------------|-----------------------------
-|----------------------------0-----------------|-----------------------------
-|--3-------------------------------------------|-----------------------------
 G Sitting on the dock of the bay

-|----------------10---------------------17-----|-----------------------------
-|--10h12--10h12--10h12--10-10-12h14--14----14--|-----------------------------
-|----------------------------------------------|-----------------------------
-|----------------------------------------------|-----------------------------
-|----------------------------------------------|-----------------------------
-|----------------------------------------------|-----------------------------
 G

-|----------------------------------------------------------|-----------------
-|----------------------------------------------------------|-----------------
-|---------------0------------------------------------------|-----------------
-|-------------0--------------------------------------------|-----------------
-|----------------------------------------------------------|-----------------
-|----------3--------------------------------0--------------|-----------------
 G Wasting time

-|--------------------10----10------------------------------|-----------------
-|-12h14-12-10-10h12-----12----12-10h12-10-------12----12---|-----------------
-|------------------------------------------9/11----11------|-----------------
-|----------------------------------------------------------|-----------------
-|----------------------------------------------------------|-----------------
-|----------------------------------------------------------|-----------------
 G

Bridge
-|-----------3----------2--------------0----------------|---------------------
-|-----------3----------3--------------1----------------|---------------------
-|-----------0----------2--------------0----------------|---------------------
-|-----------0----------0--------------2----------------|---------------------
-|-----------2-------------------------3----------------|---------------------
-|-----------3------------------------------------------|---------------------
 G          Looks like nothing's ever gonna change

-|------------------------------------------------------|---------------------
-|---10--10/12------------------------------------------|---------------------
-|------------------------------------------------------|---------------------
-|-10----10/12---------------------------------------10-|---------------------
-|------------------------------------------------------|---------------------
-|------------------------------------------------------|---------------------
 G

-|--------3-----2-------------0-----------------|-----------------------------
-|--------3-----3-------------1-----------------|-----------------------------
-|--------0-----2-------------0-----------------|-----------------------------
-|--------0-----0-------------2-----------------|-----------------------------
-|--------2-------------------3-----------------|-----------------------------
-|--------3-------------------------------------|-----------------------------
 G        Everything still remains the same

-|----------------------------------------------|-----------------------------
-|-------12-------------------------------------|-----------------------------
-|----------------------------------------------|-----------------------------
-|-10/12----------------------------------------|-----------------------------
-|----------------------------------------------|-----------------------------
-|----------------------------------------------|-----------------------------
 G

-|--------3---------2-----------0---------------3----------------|------------
-|--------3---------3-----------1---------------3----------------|------------
-|--------0---------2-----------0---------------0----------------|------------
-|--------0---------0-----------2---------------0----------------|------------
-|--------2---------------------3---------------2----------------|------------
-|--------3-------------------------------------3----------------|------------
 G         I can't do what ten people want me to

-|---------------------------------------------------------------|------------
-|-------12------------------------------------------12----12----|------------
-|---------------------------------------------------------------|------------
-|-10/12---------------------------------------10/12----12----12-|------------
-|---------------------------------------------------------------|------------
-|---------------------------------------------------------------|------------
 G

-|----------------------------------------|-----------------------------------
-|------------------3-3-3-3-3-3-3---------|-----------------------------------
-|------------------2-2-2-2-2-2-2---------|-----------------------------------
-|-3-3-3-3-3-3-3-3--0-0-0-0-0-0-0---------|-----------------------------------
-|-3-3-3-3-3-3-3-3------------------------|-----------------------------------
-|-1-1-1-1-1-1-1-1------------------------|-----------------------------------
 G      G I guess I'll remain the same

-|----------------------------------------|-----------------------------------
-|-10----10----10---3---------------------|-----------------------------------
-|------------------2---------------------|-----------------------------------
-|----10----10------0---------------------|-----------------------------------
-|----------------------------------------|-----------------------------------
-|----------------------------------------|-----------------------------------
 G

Verse
-|---------------------------------------------|------------------------------
-|---------------------------------------------|------------------------------
-|---------0-----------------------------------|------------------------------
-|------------0--------------------------------|------------------------------
-|-----------------------0--2------------------|------------------------------
-|--3---------------3--------------------------|------------------------------
 G Sittin' on a roll in my bones

-|---------------------------------------------|------------------------------
-|---------------------------------------------|------------------------------
-|----------------------------------------4----|------------------------------
-|---------------------------------4-6-4--4----|------------------------------
-|-----------------------------4/6----------6--|------------------------------
-|---------------------------------------------|------------------------------
 G

-|----------------------------------------------------|-----------------------
-|----------------------------------------------------|-----------------------
-|--------------------0-------------------------------|-----------------------
-|-----------2---0h2------2--1--0---------------------|-----------------------
-|--------3------------------------4------------------|-----------------------
-|----------------------------------------------------|-----------------------
 G This loneliness won't leave me alone

-|----------------------------------------------------|-----------------------
-|-------------------------------------3p2---2-----3--|-----------------------
-|-----------------------------------------2---2------|-----------------------
-|---------------------------------------------2h4----|-----------------------
-|----------------------------------------------------|-----------------------
-|----------------------------------------------------|-----------------------
 G

-|------------------------------------------------|---------------------------
-|------------------------------------------------|---------------------------
-|--------0---------------------------------------|---------------------------
-|-----0-----0----------0-------------------------|---------------------------
-|--------------------------2---------------------|---------------------------
-|--3------------3--------------------------------|---------------------------
 G Two thousand miles I've roamed          just to

-|------------------------------------------------|---------------------------
-|------------------------------------------------|---------------------------
-|--------------------------------------4---------|---------------------------
-|------------------------------------4-----------|---------------------------
-|----------------------------------6-------------|---------------------------
-|--------------------------------7---------------|---------------------------
 G

-|----------------------------------------|-----------------------------------
-|--------1-------------------------------|-----------------------------------
-|-----------0----------------------------|-----------------------------------
-|-----2--------2-1-0---------------------|-----------------------------------
-|--3-----------------4-------------------|-----------------------------------
-|----------------------------------------|-----------------------------------
 G Make this dock my home     yeah

-|------------------------------------------|---------------------------------
-|----------------------------3p2-----------|---------------------------------
-|--------------------------------4-2-------|---------------------------------
-|------------------------------------2h4-2-|---------------------------------
-|------------------------------------------|---------------------------------
-|------------------------------------------|---------------------------------
 G

Chorus
-|----------------------------------------|-----------------------------------
-|----------------------------------------|-----------------------------------
-|-----------0---2/4----------------------|-----------------------------------
-|--------0-------------------------------|-----------------------------------
-|-----2----------------------------------|-----------------------------------
-|--3---------------------3---0-----------|-----------------------------------
 G Sitting on the dock of the bay

-|---------------------------------4\3/4--|-----------------------------------
-|---------------------------------5\4/5--|-----------------------------------
-|----------------------------------------|-----------------------------------
-|----------------------------------------|-----------------------------------
-|----------------------------------------|-----------------------------------
-|----------------------------------------|-----------------------------------
 G

-|---------------------------------------------|------------------------------
-|-------------------0--3-0--------------------|------------------------------
-|-----------------0--------0------------------|------------------------------
-|---------------------------------------------|------------------------------
-|---------------------------------------------|------------------------------
-|---------------3------------0----------------|------------------------------
 G Watching the tide       go away

-|---------------------------------------------|------------------------------
-|-----------------------------------------5---|------------------------------
-|--------------------------------------4------|------------------------------
-|---------------------------------------------|------------------------------
-|----------------------------------5/7--------|------------------------------
-|---------------------------------------------|------------------------------
 G

-|-----------------------------------|----------------------------------------
-|-----------------------------------|----------------------------------------
-|--------0--------------------------|----------------------------------------
-|-----0-----0-----------------------|----------------------------------------
-|-------------------------0---------|----------------------------------------
-|--3-----------3--3--3--------------|----------------------------------------
 G Sitting on the dock of the bay

-|-------------------------3-----3---|----------------------------------------
-|-------------------------3h5---5---|----------------------------------------
-|------2h4--2h4---------------------|----------------------------------------
-|----------------0------------------|----------------------------------------
-|-----------------------------------|----------------------------------------
-|-----------------------------------|----------------------------------------
 G

-|-------------------------------------|--------------------------------------
-|-------------------------------------|--------------------------------------
-|----------------0--------------------|--------------------------------------
-|-------------0-----0-----------------|--------------------------------------
-|-------------------------------------|--------------------------------------
-|----------3------------3--0----------|--------------------------------------
 G Wasting time

-|-------------------------------------|--------------------------------------
-|----------3----3----------------9----|--------------------------------------
-|----------4h5--4-------------/9------|--------------------------------------
-|-------------------------------------|--------------------------------------
-|-------------------------------------|--------------------------------------
-|-------------------------------------|--------------------------------------
 G

Solo
-|-------------3-----------------2---------------|----------------------------
-|-------------3-----------------3---------------|----------------------------
-|-------------0-----------------2---------------|----------------------------
-|-------------0-----------------0---------------|----------------------------
-|-------------2---------------------------------|----------------------------
-|-------------3---------------------------------|----------------------------
 G

-|-----------------------------------------------|----------------------------
-|-----17-17--15h17--15-12-----------------------|----------------------------
-|-/16--------16-----------14b16-12--14b16r14vv--|----------------------------
-|-----------------------------------------------|----------------------------
-|-----------------------------------------------|----------------------------
-|-----------------------------------------------|----------------------------
 G

-|--------0-------------------------|-----------------------------------------
-|--------1-------------------------|-----------------------------------------
-|--------0-------------------------|-----------------------------------------
-|--------2-------------------------|-----------------------------------------
-|--------3-------------------------|-----------------------------------------
-|----------------------------------|-----------------------------------------
 G

-|----------------------------------|-----------------------------------------
-|----------------------------------|-----------------------------------------
-|-12----12-14-12-------------------|-----------------------------------------
-|----14----------14--12------------|-----------------------------------------
-|-----------------------14-12-10---|-----------------------------------------
-|----------------------------------|-----------------------------------------
 G

-|--3-----------------------2------------------------0--------------------|---
-|--3-----------------------3------------------------1--------------------|---
-|--0-----------------------2------------------------0--------------------|---
-|--0-----------------------0------------------------2--------------------|---
-|--2------------------------------------------------3--------------------|---
-|--3---------------------------------------------------------------------|---
 G

-|--------------------------------------------------15----15h17--17-15----|---
-|----------------------------------------15--15/17----17--------------17-|---
-|-------------------------12-12h14-14/16---------------------------------|---
-|-------------12-12-12h14------------------------------------------------|---
-|-10h12-12/14------------------------------------------------------------|---
-|------------------------------------------------------------------------|---
 G

-|------3----------2-------------0--------------------------|-----------------
-|------3----------3-------------1--------------------------|-----------------
-|------0----------2-------------0--------------------------|-----------------
-|------0----------0-------------2--------------------------|-----------------
-|------2------------------------3--------------------------|-----------------
-|------3---------------------------------------------------|-----------------
 G

-|-17--17b19--17--17vv-17-15-15-15-----------------15-17-15-|-----------------
-|------------------------------15h17-17-15h17-17-----------|-----------------
-|------------------------------------17--------------------|-----------------
-|----------------------------------------------------------|-----------------
-|----------------------------------------------------------|-----------------
-|----------------------------------------------------------|-----------------
 G

-|------------------------------------------------------------------------|---
-|----------------------------------3--3--3--3--3--3--3--3----------------|---
-|----------------------------------2--2--2--2--2--2--2--2----------------|---
-|--------3--3--3--3--3--3--3--3----0--0--0--0--0--0--0--0----------------|---
-|--------3--3--3--3--3--3--3--3------------------------------------------|---
-|--------1--1--1--1--1--1--1--1------------------------------------------|---
 G

-|-17b19-17vv-17vv-17vv-17b19-17b19-17b19r17-15---------------------------|---
-|----------------------------------------------17-17\15-17\15-15/17------|---
-|------------------------------------------------------------------------|---
-|------------------------------------------------------------------------|---
-|-------------------------------------------------------------------17\--|---
-|------------------------------------------------------------------------|---
 G

Chorus
-|---------------------------------------------|------------------------------
-|---------------------------------------------|------------------------------
-|---------------------------------------------|------------------------------
-|----------0----------------------------------|------------------------------
-|-----------------------0--2------------------|------------------------------
-|--3------------3-----------------------------|------------------------------
 G Sittin' here restin' my bones

-|-------------------------------------16------|------------------------------
-|-------------------15-------------------16---|------------------------------
-|-------------14h16-14-16-x-16-----16---------|------------------------------
-|---------------------------------------------|------------------------------
-|---------------------------------------------|------------------------------
-|---------------------------------------------|------------------------------
 G

-|-----------------------------------------------------------------------|----
-|------------------------------------------------------3p2-----3p2------|----
-|----------------------------------------------------------2-------2----|----
-|-----------------------------------------------------------------------|----
-|-2-3---------3----3-----3-----2--1--0----------------------------------|----
-|-----------------------------------------------------------------------|----
 G This loneliness won't leave me alone

-|-----------------------------------------------------------------------|----
-|------------------------------16------------15p14----15p14----15p14----|----
-|------------------------------16-15-14---14-------14-------14-------14-|----
-|-----------------------------------------------------------------------|----
-|-----------------------------------------------------------------------|----
-|-----------------------------------------------------------------------|----
 G

-|--------------------------------------------------|-------------------------
-|--------------------------------------------------|-------------------------
-|--------------------------------------------------|-------------------------
-|---------------0----------------------------------|-------------------------
-|----------------------0---2-----------------------|-------------------------
-|--3-------3-------3-------------------------------|-------------------------
 G Two thousand miles I've roamed          just to

-|------------------------------------16------------|-------------------------
-|--------------15----15-----------------16---------|-------------------------
-|--14h16-------14h16-14---16------16-----------16--|-------------------------
-|--------------------------------------------------|-------------------------
-|--------------------------------------------------|-------------------------
-|--------------------------------------------------|-------------------------
 G

-|-----------------------------------------|----------------------------------
-|-----------------------------------------|----------------------------------
-|-----------------------------------------|----------------------------------
-|-----------------------------------------|----------------------------------
-|--3-----3-3-3--2--1--0-------------------|----------------------------------
-|-----------------------------------------|----------------------------------
 G Make this dock my home       yeah

-|-----------------------------------------|----------------------------------
-|------------------------------14-14-14---|----------------------------------
-|--17--------17-16-15-14----14----14-14---|----------------------------------
-|-----------------------------------------|----------------------------------
-|-----------------------------------------|----------------------------------
-|-----------------------------------------|----------------------------------
 G

Chorus
-|-----------------------------------------|----------------------------------
-|-----------------------------------------|----------------------------------
-|----------0------------------------------|----------------------------------
-|------0------0---------------------------|----------------------------------
-|-----------------------------------------|----------------------------------
-|--3--------------3----3--3--0------------|----------------------------------
 G Sitting on the dock of the bay

-|-----------------10----10----------------|----------------------------------
-|----------10h12--10h12-10---12------12---|----------------------------------
-|---------------------------------11------|----------------------------------
-|-----------------------------------------|----------------------------------
-|-----------------------------------------|----------------------------------
-|-----------------------------------------|----------------------------------
 G

-|---------------------------------------------------|------------------------
-|---------------------------------------------------|------------------------
-|---------------------------------------------------|------------------------
-|-------------------0-------------------------------|------------------------
-|---------------------------------------------------|------------------------
-|---------------3----------3---0--------------------|------------------------
 G Watching the tide       go away

-|-----------------10-----10--9----------------------|------------------------
-|--------------10-10h12--12-10-------12----12--x-10-|------------------------
-|-------------------------------9/11----11-----x----|------------------------
-|---------------------------------------------------|------------------------
-|---------------------------------------------------|------------------------
-|---------------------------------------------------|------------------------
 G

-|------------------------------------------|---------------------------------
-|------------------------------------------|---------------------------------
-|----------0-------------------------------|---------------------------------
-|-------------0----------------------------|---------------------------------
-|-----------------------------0------------|---------------------------------
-|--3--------------3------------------------|---------------------------------
 G Sitting on the dock of the bay

-|-------10-------10-------10-----------12--|---------------------------------
-|-10h12----12-10-10h12-12----12--12/14-----|---------------------------------
-|------------------------------------------|---------------------------------
-|------------------------------------------|---------------------------------
-|------------------------------------------|---------------------------------
-|------------------------------------------|---------------------------------
 G

-|-----------------------------------------------------|----------------------
-|-----------------------------------------------------|----------------------
-|-----------------------------------------------------|----------------------
-|-----------------------------------------------------|----------------------
-|-----------------------------------------------------|----------------------
-|--3----------------------------------0---------------|----------------------
 G Wasting time

-|------12----------10-------10------------------------|----------------------
-|---14----14-10/12----12-12----12--12------12----12---|----------------------
-|-------------------------------------9/11----11------|----------------------
-|-----------------------------------------------------|----------------------
-|-----------------------------------------------------|----------------------
-|-----------------------------------------------------|----------------------
 G

Outro
-|-----------------------------------------------------------|----------------
-|-----------------------------------------------------------|----------------
-|-----------------------------------------------------------|----------------
-|-----------------------------------------------------------|----------------
-|-------3h5-3h5-------3h5-3h5-------3h5-3h5-----------------|----------------
-|--3--3----------3--3----------3--3-----------0-0-0-0-0-0-0-|----------------
 G

-|-----------------------------------------------------------|----------------
-|-----------------------------------------------------------|----------------
-|-----------------------------------------------------------|----------------
-|-----------------------------------------------------------|----------------
-|-------3h5-3h5-------3h5-3h5-------3h5-3h5-----------------|----------------
-|--3--3----------3--3----------3--3-----------0-0-0-0-0-0-0-|----------------
 G

-|------------------------------------------------12---17\---|----------------
-|-----------------------------------------------------------|----------------
-|-------------------------------------------9/13------------|----------------
-|-----------------------------------------------------------|----------------
-|-----------------------------------------------------------|----------------
-|-----------------------------------------------------------|----------------
 G

-|------------------------------------------------------------------------||--
-|------------------------------------------------------------------------||--
-|------------------------------------------------------------------------||--
-|------------------------------------------------------------------------||--
-|-------3h5-3h5-------3h5-3h5-----------3h5-----3h5--5/------------------||--
-|--3--3----------3--3----------3---3----------------------0--------------||--
 G

-|---------------------------------------10---9---8-----------------------||--
-|---------------------------------10/12-12--11--10-------12----12----12--||--
-|---------------------------------------------------9/11----11----11-----||--
-|------------------------------------------------------------------------||--
-|-------3h5-3h5-------3h5-3h5--------------------------------------------||--
-|--3--3----------3--3----------3-----------------------------------------||--
 G     
Добавлено: 02.06.2013
Другие материалы по этой песне:
  • Аккорды и текст

Страница создана 28.05.2012
http://primanota.ru/pearl-jam/dock-of-the-bay-chords.htm
Привет, Гость.
Предлагаем пройти революционный курс по гитаре.
Подарок от PrimaNota.Ru, забирай!