PrimaNota.ru - самый крупный в мире бесплатный архив песенных текстов, аккордов, табулатур и нот


Pearl Jam - Covers - аккорды и текст, таба, видео

Регистрация Запомнить меня
Войти через:  Facebook Google Twitter Vk Yandex Mail.ru

Pearl Jam - Covers - аккорды и текст, таба, видео

Печатать
Просмотров: 91
Covers
Pearl Jam
PjPjPjPjPjPjPjPjPjPjPjPjPjPjPjPjPjPjPjPjPj
Pj                                      Pj
Pj          Non-Album Covers            Pj
Pj                                      Pj 
PjPjPjPjPjPjPjPjPjPjPjPjPjPjPjPjPjPjPjPjPj
Pj       
Pj      Act of Love    
Pj      Beast of Burden 
Pj      Crazy Mary      
Pj      Dock of the Bay     
Pj      F&*%in Up        
Pj      Hunger Strike     
Pj      I Won't Back Down      
Pj      I've Got a Feeling
Pj      I've Got You          
Pj      The Kids Are           
Pj      Alright                
Pj      Let My Love Open 
Pj              the Door    
Pj      Little Wing
Pj      Masters of War   
Pj      Patriot           
Pj      Redemption Song
Pj      Rockin' in the                             
Pj      Free World                               
Pj      Sonic Reducer                              
Pj      Walking The Cow                            
PjPjPjPjPjPjPjPjPjPjPjPjPjPjPjPjPjPjP

Beast Of Burden
The Rolling Stones
 

E             B/D# C#m         A
I'll never be your beast of burden

E          B/D#  C#m        A
My back is broad but it's a hurting

E     B/D#        C#m         A
All I want is for you to make love to me

E             B/D# C#m         A
I'll never be your beast of burden

E               B/D#   C#m         A
I've walked for miles, my feet are hurting

E     B/D#        C#m         A            B/D#  C#m
All I want is for you to make love to me
 

A                     E/G#              A
Am I hard enough Am I rough enough Am I rich enough

    E/G#          A  B
I'm not too blind to see

 
E             B/D# C#m      A
I'll never be your beast of burden

E            B/D#  C#m        A
So let's go home and draw the curtains

E             E/D#
Music on the radio

C#m           A                       E   B/D#   C#m
Come on baby, make sweet love to me
 

A                     E/G#              A
Am I hard enough Am I rough enough Am I rich enough

    E/G#          A  B                       E
I'm not too blind to see...oh little sister

   E/D#    C#m         A
Pretty, pretty, pretty girl


E  B/D#  C#m | A | E  B/D#  C#m | C#m  A | E  B/D#  C#m |


A             E                               A
You're such a pretty, pretty, pretty, pretty, pretty, pretty girl

E                             A
Pretty, pretty such a pretty, pretty, pretty girl

E             A
Come on, baby please, please, please
 

A            E
I'll tell ya

               B/D# C#m   A
You can put me out on the street

E                        A
Put me out with no shoes on my feet

    E           B/D#  C#m                        A   E    B/D# C#m
But put me out, put me out, put me out... out of misery

E          B/D#     C#          A
All your sickness I can suck it up

E              E/D#
Throw it all at me

C#m            A
I can shrug it off

   E               B/D#  C#m          A
There's one thing, baby, I don't understand

E        E/G#         A
You keep telling me I ain't your kind of man


        E
Ain't I rough enough

A       E       B/D#  C#m
Ain't I tough enough

A       E
Ain't I rich enough

     B/D#  C#m
In love enough

     A           E  B/D#  C#m
Ooh  Ooh  please


repeat first verse


end:

I don't need no beast of burden

I need no fussing, I need no nursing

Never, never, never, never, never, never, never be...

 
PjPjPjPjPjPjPjPjPjPjPjPjPjPjPjPjPjPjPjPjPjPjPjPjPjPjPjPjPjPjPjPjPjPjPjPjPjPjPj

Crazy Mary
Victoria Williams

B
She lived on a curve in the road

G
In an old tar paper shack

B                                    G
On the south side of the town on the wrong side of the tracks

B
Sometimes on the way in to town

G                         G
We say 'Mama, can we stop and give her a ride?'

B                 A             G
Sometimes we did, but her hands flew from her side

G           A        B        G    B    G    B
Wild eye... Crazy... Mary


B                      G
Down a long dirt road, past the Parson's place

B                   G
Their old blue car, we used to race

B                     A
Little country store, with a sign tagged to the side

B                            G
Said 'NO L-O-I-T-E-R-I-N-G ALLOWED'

B                           G
Underneath that sign allows congregated quite a crowd


B                      A          G
Take a bottle drink it down, pass it around (drink it down)
Take a bottle drink it down, drink,
               (pass it around) pass it around (pass it around)
Take a bottle drink it down, pass it, pass it a, pass it a-around

B
One night thunder cracked, Mercy backed outside her windowsile

E
Dreamed I was flying high above the trees, over the hills

B
Looked down into the house of Mary

F#m                  E
Terrible thought(?), newspaper covered walls

B
and Mary rising up above it all...

B     E     B     B     E     B     B
ah... ah...


B
Next morning on the way into town,

G
Saw some skid marks and followed them around

B                         G                        B
over the curb through the fields into the house of Mary

??????????????????????????????????????????????????
E?                      D?
That what you fear the most will meet you half way

??????????????????????????????????????????????????
That what you fear the most will meet you half way

B                         A       G
Take a bottle drink it down, pass it around (drink it down)
Take a bottle drink it down, pass it a, pass it around
Take a bottle drink it down, pass it a, pass it a, pass it a-around

                                                         
Submitted by:  MTLIM@ELECTRICAL.WATSTAR.UWATERLOO.CA 


PjPjPjPjPjPjPjPjPjPjPjPjPjPjPjPjPjPjPjPjPjPjPjPjPjPjPjPjPjPjPjPjPjPjPjPjPjPjPj

(Sittin' On) The Dock Of The Bay
Otis Redding & Steve Cropper


Verse 1:
G                      B
Sittin' in the mornin' sun,
        C                   B Bb A
I'll be sittin' when the evenin' comes.
G                       B
Watching the ships roll in,
       C               B Bb A
then I watch 'em roll away again, yeah.

Chorus:
    G                          E
I'm sittin' on the dock of the bay,
             G          E
watching the tide roll away.
             G                          A
Oo, I'm just sittin' on the dock of the bay,
        G     E
wastin' time.

Verse 2:
I left my home in Georgia,
headed for the 'Frisco Bay.
I have nothing to live for,
it look like nothin's gonna come my way.

Chorus:
So, I'm just gon' sit on the dock of the bay,
watching the tide roll away.
Oo, I'm just sittin' on the dock of the bay,
wastin' time.

Bridge:
G    D       C
Look like nothing's gonna change.
G  D   C
Ev'rything still remains the same.
G D             C               G
I can't do what ten people tell me to do,
F                 D
so I guess I'll remain the same, yes.

Verse 3:
I'm sittin' here restin' my bones,
and this loneliness won't leave me alone, yes.
Two thousand miles I roamed
just to make this-a dock my home.

Chorus:
Now, I'm just gon' sit at the dock of the bay,
watching the tide roll away.
Oo, I'm just sittin' on the dock of the bay,
wastin' time.


Main riff:
The riff used during the choruses goes something like this...

    G                         E
----10----10----10-10-------|-------------------------|-----------------------
-10h12-10h12-10h12-10----12-|-------------------------|-----------------------
----------------------12-11-|-------------------------|-----------------------
----------------------------|-------------------------|-----------------------
----------------------------|-------------------------|-----------------------
----------------------------|-------------------------|-----------------------
    |     |     |__|  |__|    |     |     |     |
                                 \ These notes ring throughout
                                        the following bar

    G                         E
----10----10----10-10-------|-------------------------|-----------------------
-10h12-10h12-10h12-10----12-|-------------------------|-----------------------
----------------------12-11-|-------------------------|-----------------------
----------------------------|-------------------------|-----------------------
----------------------------|-------------------------|-----------------------
----------------------------|-------------------------|-----------------------
    |     |     |__|  |__|    |     |     |     |
                                 \ These notes ring throughout
                                        the following bar

    G                            A
-------10-10----10-10----------|-12----12----------------------|--------------
----10h12----10h12-10----12h14-|----14----14-12h14-12----10h12-|--------------
----------------------12-------|----------------------14-------|--------------
-------------------------------|-------------------------------|--------------
-------------------------------|-------------------------------|--------------
-------------------------------|-------------------------------|--------------
 |     |__|     |__|  |____|     |__|  |__|     |__|  |____|


    G                         E
-10----10-------10-10----------|-------------------------|--------------------
----12----12-10h12-10----------|-------------------------|--------------------
-------------------------11/13-|-------------------------|--------------------
-------------------------------|-------------------------|--------------------
-------------------------------|-------------------------|--------------------
-------------------------------|-------------------------|--------------------
 |__|  |__|     |__|  |_____|       |     |     |     |
                                    \ This note ring throughout
                                          the following bar

Submitted by:  shotokan@diku.dk


PjPjPjPjPjPjPjPjPjPjPjPjPjPjPjPjPjPjPjPjPjPjPjPjPjPjPjPjPjPjPjPjPjPjPjPjPjPjPj

F*!in' Up
Neil Young

Dmv      Ciii           C               F G
Mindless drifter on the road (why do I) ->

Carry such an easy load (why do I)
                                              
It's how you look and how you feel (why do I)

You must have a heart of steel (why do I)

Dm            C       G  
Why do I keep fuckin' up?


I can see you on a hill (why do I)
Comatose, but walking still (why do I)
Curves benath your flowing gown (why do I)
If only I could bring you down (why do I)
Why do I keep fuckin' up?

                                             
Dogs that lick and dogs that bite (why do I)
Hounds that howl through the night (why do I)
Broken leashes all over the floor (why do I)
Keys left hangin; in a swingin; door (why do I)
Why do I keep fuckin' up?
                  
(Keep fuckin' up)

                                          
PjPjPjPjPjPjPjPjPjPjPjPjPjPjPjPjPjPjPjPjPjPjPjPjPjPjPjPjPjPjPjPjPjPjPjPjPjPjPj

Hungerstrike
Temple of the Dog

Dropped D tuning (DADGBE)

Main Riff:

 G                 Cadd9             G                (organ: Gsus4)
                 
------------------|-----------------|-----------------|-----------------------
------0---3-----3-|-----0---3-----3-|-----0---3-----3-|-----0---3-----3-------
----0---0---0-----|---0---0---0-----|---0---0---0-----|---0---0---0-----------
--0-----------0---|-2-----------2---|-0-----------0---|-0-----------0---------
------------------|-----------------|-----------------|-----------------------
------------------|-----------------|-----------------|-----------------------

This part is later on doubled until the fourth measure, which is:

------------------------------------------------------------------------------
--3/5--3--0--3~~--------------------------------------------------------------
------------------------------------------------------------------------------
------------------------------------------------------------------------------
------------------------------------------------------------------------------
------------------------------------------------------------------------------

Bridge:

  D5 E5   D5 E5 
------------------------------------------------------------------------------
------------------------------------------------------------------------------
------------------------------------------------------------------------------
--0--2----0--2-----4b5r4b5r4~~~-----------------------------------------------
--0--2----0--2----------------------------------------------------------------
--0--2----0--2----------------------------------------------------------------

Submitted by:  tmvtzet@cs.vu.nl

PjPjPjPjPjPjPjPjPjPjPjPjPjPjPjPjPjPjPjPjPjPjPjPjPjPjPjPjPjPjPjPjPjPjPjPjPjPjPj

I Won't Back Down
Tom Petty

       C#m   B    E          C#m   B    E
Well I won't back down, no I won't back down
        C#m      B         A              
You can stand me up at the gates of hell
       C#m  B    E
But I won't back down 



      C#m   B  E                C#m  B   E       
Gonna stand my ground, won't be turned around
         C#m       B          A            
And I'll keep this world from draggin' me down
        C#m B  E            C#m   B    E     AE
Gonna stand my ground and I won't back down     


A E B   EA                  E     B    E
Hey baby, there ain't no easy way out
A E B      C#m   B  E            C#m   B    E  
hey I will stand my ground and I won't back down  


Well I know what's right I got just one life
In a world that keep on pushin' me around  
But I'll stand my ground and I won't back down


Hey baby, there ain't no easy way out
Hey I will stand my ground and I won't back down 
And I won't back down
No I wont't back down


PjPjPjPjPjPjPjPjPjPjPjPjPjPjPjPjPjPjPjPjPjPjPjPjPjPjPjPjPjPjPjPjPjPjPjPjPjPjPj

I've Got A Feeling 
The Beatles

 
Intro:                      Main Riff:
 A           D/A             A           D/A
---------5------------5--------------5------------5---------------------------
---------2----2---3---3--------------2----2---3---3---------------------------
------2-----2_h_4---4---2---------2-----2_h_4---4---2-------------------------
-------------------------------2----------------------------------------------
----0--------------------------0----------------------------------------------
----0-------------------------------------------------------------------------
 
w/ Main Riff x 8
A             D/A  - A              D/A        - A  D/A       - A        D/A
Ive got a feeling a feeling deep inside Oh yeah        Oh yeah  Thats right
 
 
A             D/A  -   A           D/A       - A  D/A     - A   D/A
Ive got a feeling a feeling i cant hide oh no  no    oh no          oh no
 
 
Git 1 plays chords when not playing the riff (see bottom for shapes)
Git 2 plays:
 
 A7                              E       G          D
------------------------------------------------------------------------------
---8-------8------8------8----------------------------------------------------
---9-9-9---9-9-9--9-9-9--9-9-9------------------------------------------------
---7-7-7---7-7-7--7-7-7--7-7-7------------------------------------------------
------------------------------------------0-2-3-4-5---------------------------
----------------------------------0-2-3-4-------------------------------------
             yeah                  yeah             ive got a feel
 
 w/ Main Riff Git 1 x 10
  A            D/A           A            D/A
-----12-\--9--------------------12-\--9---------------------------------------
-----14--\-10--7- 8-7-----------14--\-10--7- 8-7------------------------------
---------------7-h7-7---------------------7-h7-7------------------------------
---------------7- 9-7---------------------7- 9-7------------------------------
------------------------------------------------------------------------------
------------------------------------------------------------------------------
- ing  yeah
 
   A     D/A                 A                    D/A
-------------5------5--------------5--------------5--------5------5-----------
-------------5------5--------------5--------------5--------5------5-----------
-------------6------6--------------6--------------6--------6------6-----------
-------------7------7--------------7--------------7--------7------7-----------
------------------------------------------------------------------------------
------------------------------------------------------------------------------
Oh  please believe me,I'd hate to miss the train   Oh yeah
Ive got a  feel ing  that keeps me on  my  toes    Oh yeah
 
 
  A     D/A          A             D/A      A                 D/A
--5--5---------------5--5--------5------5------5------------------------------
--5--5--7--8---------5--5--7--8--5------5------5--------------7-------5-------
--6--6--7--7------------6--7--7--6------6------6--------------7-------6-------
--7--7--7--9------------7--7--9--7------7------7--------------7-------7-------
------------------------------------------------------------------------------
------------------------------------------------------------------------------
  yeah       Oh yeah.                      And if you leave me        I
             Oh yeah.                      Ive got a feeling I think that
 
 
  A                 D/A          A     D/A           A     D/A
------------------------5--------5--5----------------5--5---------------------
-------------5----------5--------5--5--7--8----------5--5--7--8--7------------
-------------6--7---7---6--------6--6--7--7----------6--6--7--7--7------------
-------------7--7---7---7--------7--7--7--9----------7--7--7--9--7------------
------------------------------------------------------------------------------
------------------------------------------------------------------------------
  won't be late again   oh no               oh no                oh no
  every    body knows   oh yeah             oh yeah            oh yeah
 
 
 A7                             E       G          D
------------------------------------------------------------------------------
---8------8------8------8-----------------------------------------------------
---9-9-9--9-9-9--9-9-9--9-9-9-------------------------------------------------
---7-7-7--7-7-7--7-7-7--7-7-7-------------------------------------------------
-----------------------------------------0-2-3-4-5----------------------------
---------------------------------0-2-3-4--------------------------------------
            yeah                  yeah             Ive got a feel
            yeah                  yeah             Ive got a feel
 
 
  A            D/A           A              D/A
-----12-\--9--------------------12-\--9---------------------------------------
-----14--\-10--7- 8-7-----------14--\-10----7- 8-7----------------------------
---------------7-h7-7-----------------------7-h7-7----------------------------
---------------7- 9-7-----------------------7- 9-7----------------------------
------------------------------------------------------------------------------
------------------------------------------------------------------------------
- ing  yeah                 Ive got a feeling
- ing  yeah                                 yeah
 
  _____
 |1.
  E                                        G7
--10b12----10b12------10b11~11~11~11r10-7---7---7----7--------7------7------7-
--------------------------------------------8b9b10---8b10r8---8b10r8-8b10r8-8-
------------------------------------------------------------------------------
------------------------------------------------------------------------------
------------------------------------------------------------------------------
------------------------------------------------------------------------------
 All these years I've been wandering around,Wondering how come nobody told me
 
 
 D7
-----8b10~10----------------8b10~10~10~10r8--5--------------------------------
------------------------------------------------------------------------------
------------------------------------------------------------------------------
------------------------------------------------------------------------------
------------------------------------------------------------------------------
------------------------------------------------------------------------------
 All that I was looking for was somebody Who looked like you.
 
 
 A7          /\/\/\/\/\/\/\/\/\/\/\
------------------------------------------------------------------------------
------------------------------------------x-----------------------------------
--7b9~9b10b11r9r8---(7)b8~8~8~8~8~-5b7r5--------------------------------------
-----------------------------------------7x-----------------------------------
------------------------------------------------------------------------------
------------------------------------------------------------------------------
 
 ____
|2.   w/ Main Riff x6
  A        D/A              A          D/A
-----5--5-------------------5--5---5------------------------------------------
-----5--5--7- 8--7----------5--5---5-0-7- 8--7---7----------------------------
-----6--6--7-h7--7----------6--6---6---7-h7--7---7----------------------------
-----7--7--7- 9--7----------7--7---7---7- 9--7---7----------------------------
------------------------------------------------------------------------------
------------------------------------------------------------------------------
 Ev'rybody had a hard year Ev'rybody had a good time
 Ev'rybody had a good year,Ev'ry let their hair down
 
 
    A              D/A           A               D/A
----5--5--------------------------5--5----------------------------------------
----5--5--7- 8-----7-----7--------5--5--7- 8-----7-----7----------------------
----6--6--7-h7-----7-----7--------6--6--7-h7-----7-----7----------------------
----7--7--7- 9-----7-----7--------7--7--7- 9-----7-----7----------------------
------------------------------------------------------------------------------
------------------------------------------------------------------------------
 Ev'rybody had a   wet   dream,  Ev'rybody saw the sunshine
 Ev'rybody pulled their socks up Ev'rybody put their foot down.
 
 
 ______                                ___
|1.                                   |2.  See end for notes
 A       D/A    A        D/A           A7 [Edim/A      Ebdim/A Ddim/A]
------------------------------------------------------------------------------
---------7--7------5--5--7- 8-----7-x------8-8-8--8-8-8--7-7-7--6-6-6---------
---------7--7------6--6--7-h7-----7------9---9-9--9-9-9--8-8-8--7-7-7---------
---------7--7------7--7--7- 9-----7-x-------(8)---------(7)----(6)------------
------------------------------------------------------------------------------
------------------------------------------------------------------------------
 Oh yeah,    Oh    yeah.
 
 
[C#dim/A        Cdim/A Bdim/A]     A        D/A         A       D/A
--------------------------------------5----------5--------5-----------5-------
--5-5-5--5-5-5--6-6-6--7-7-7--8-----------------------------------------------
--6-6-6--6-6-6--7-7-7--8-8-8--9-----------2---2----2----2-----2---2-----------
-(5)-----------(6)----(7)-----------2---2-h-4--4------------2---4---4----2----
----------------------------------0--------------------0----------------------
------------------------------------------------------------------------------
 
                                                     ______
   w/ Main riff 4x                                  |1.
    A        D/A            A        D/A              A        D/A
---------12-12b14~r12---------9------------------12---------------------------
--x--12b14-------------------------------10-12b14---------------7---8----7----
----------------------------------------------------------------7 h 7----7----
--x--1.-I-got-a-feeling-a---feeling-i-cant-hide-o-no------------7---9----7----
-----2.-I-got-a-feeling-a---feeling-deep-inside-o-ye---------oh---yeah--------
------------------------------------------------------------------------------
 Ev'rybody had a good year Ev'rybody had a hard time Ev'rybody had a wet dream
 Ev'rybody had a good year,Ev'ry let their hair down
 
                              _____
                             |2.
  A         D/A                     A           D/A
------------------------------------5-----------------------------------------
------------7---8--7---7----x-------5----5------7---8--7----7-----------------
------------7-h-7--7---7------------6-----------7-h-7--7----7-----------------
------------7---9--7---7----x-------7-----------7---9--7----7-----------------
---------------------------------------------------Oh-no-no-no----------------
------------------------------------------------------------------------------
 Everybody saw the sun shine   Ev'rybody pulled their socks up
 
  A         D/A                     A7 [Edim/A Ebdim/A Ddim/A]
---------5----------------5---------------------------------------------------
--5--5---5--7- -8---------7--------------8-----7-----7------------------------
--6--6---6--7-h-7---------7--------------9-9-9-8-8-8-8------------------------
--7--7---7--7- -9---------7---------------------------------------------------
------------------------------yeh---------------------------------------------
------------------------------------------------------------------------------
 Everybody put their foot down oh   yeah
 
 [C#dim/A    Ddim/A Ebdim/A] [Edim/A Ebdim/A Ddim/A]
----------------------------------5-5-5-7-7-7-8-8-8---------------------------
--5-5--5-5-5-7-7-7-6-6-6------5---5-5-5-6-6-6-7-7-7---------------------------
--6-6--6-6-6-8-8-8-7-7-7------6---6-6-6-7-7-7-8-8-8---------------------------
------------------------------------------------------------------------------
----Ive-got-a-feeling---------------------------------------------------------
------------------------------------------------------------------------------
 
 [C#dim/A  Ddim/A Ebdim/A] [Edim/A Ebdim/A Ddim/A]
--9-9-9-9-9-9-8-8-8-7-7-7---5---5-5-5-7-7-7-8-8-8-----------------------------
--8-8-8-8-8-8-7-7-7-6-6-6---5---5-5-5-6-6-6-7-7-7-----------------------------
--9-9-9-9-9-9-8-8-8-7-7-7---6---6-6-6-7-7-7-8-8-8-----------------------------
------------------------------------------------------------------------------
------------------------------------------Ive-got-----------------------------
-------------------------------------------a-feel-----------------------------
          Oh yeah
 
 [C#dim/A  Ddim/A Ebdim/A]  A
--9----9-9-9-8-8-8-7-7-7------------------------------------------------------
--8----8-8-8-7-7-7-6-6-6----5-------------------------------------------------
--9----9-9-9-8-8-8-7-7-7----6-------------------------------------------------
----------------------------7-------------------------------------------------
--ing--------yeah-------------------------------------------------------------
------------------------------------------------------------------------------
 
Notes:
 
/\/\/\/\/\ Vibrato
7b8~8      Pluck,Bend up a semitone from 7th fret hold and strike again
(8)        Implied note [ghost]
7b9r7      Pluck, bend 7th fret up two semitones, pluck, release and pluck
 
A7  x02223      - This is
G   320003     x- supposed        There are a couple of really
E   032200      - to be           nifty bass runs in this song
D   x00232     x- a repeat        which I might add if there
G7  320001      - sign            is any interest?
D7  x00212
 
Guitar 1 wierd shape info
 
                    The tab here is shows the timing that should
                    be used. They are triplets.
 
                   [Edim/A    Ebdim/A Ddim/A] [C#dim/A Cdim/A Bdim/A]
Bdim/A    x0343x  ------------------------------------------------------------
Cdim/A    x0454x  --8-8-8-8-8-8--7-7-7-6-6-6--5-5-5-5-5-5--4-4-4-3-3-3--------
C#dim/A   x0565x  --9-9-9-9-9-9--8-8-8-7-7-7--6-6-6-6-6-6--5-5-5-4-4-4--------
Ddim/A    x0676x  --8-8-8-8-8-8--7-7-7-6-6-6--5-5-5-5-5-5--4-4-4-3-3-3--------
D#dim/A   x0787x  ------------------------------------------------------------
Edim/A    x0898x  ----I got a feeling-----------------------------------------
                                \ these are overdubbed voices
 
These D shapes     [Edim/A    Ebdim/A Ddim/A] [C#dim/A    Ddim/A Ebdim/A]
are moved up &    ------------------------------------------------------------
down. Usually     --8-8-8-8-8-8--7-7-7-6-6-6--5-5-5-5-5-5--6-6-6-7-7-7--------
they correspond   --9-9-9-9-9-9--8-8-8-7-7-7--6-6-6-6-6-6--7-7-7-8-8-8--------
to what Git 2     --8-8-8-8-8-8--7-7-7-6-6-6--5-5-5-5-5-5--6-6-6-7-7-7--------
is playing but    ------------------------------------------------------------
not always        ------------------------------------------------------------
                   these two bars are repeated three times


PjPjPjPjPjPjPjPjPjPjPjPjPjPjPjPjPjPjPjPjPjPjPjPjPjPjPjPjPjPjPjPjPjPjPjPjPjPjPj

I've Got You
Split Enz

D5              Ab    A5               G5   G
        I've got you, and that's all I want
        I won't forget 'cause that's a whole lot
        When something's wrong I feel uneasy
        You show me, tell me you're not teasin'

        A      G         A         G      D         Dsus4 D Dsus2 D
        I don't know why sometimes I get frightened


        A       G        Bm        G      A
        You can see my eyes and tell that I'm not lying

D5              Ab    A5               G5   G
        Look at you, you're a pageant
        You're everything, oh yeah, that I've imagined
        I don't go out, now that you're here
        Sometimes we shout, but that's no problem

        A      G         A         G      D         Dsus4 D Dsus2 D}(2x)
        I don't know why sometimes I get frightened                }
                                                                   }
                                                                   }
        A       G        Bm        G      A                        }
        You can see my eyes and tell that I'm not lying            }

(4x)--> G5 A5 (and then this lick) 
------------------------------------------------------------------------------
---8--7--5--------------------------------------------------------------------
------------7-----6-7-6-7/9--7------------------------------------------------
------------------------------------------------------------------------------
------------------------------------------------------------------------------
------------------------------------------------------------------------------

F FF G GG

D5              Ab    A5               G5   G
        There's no doubt, but when I'm with you
        When I'm without, I stay in my room
        Where do you go?  I get no answer
        You're always out, it gets on my nerves...

        A      G         A         G      D         Dsus4 D Dsus2 D}(4x)
        I don't know why sometimes I get frightened                }
                                                                   }
                                                                   }
        A       G        Bm        G      A                        }
        You can see my eyes and tell that I'm not lying            }

Submitted by:  brabholc@mars.utm.edu


PjPjPjPjPjPjPjPjPjPjPjPjPjPjPjPjPjPjPjPjPjPjPjPjPjPjPjPjPjPjPjPjPjPjPjPjPjPjPj

The Kids Are Alright
Pete Townshend

D5                      G            A       D 
     I don't mind other guys dancing with my girl.

G A         D        G             A      D
     That's fine.  I know them all pretty well

           Em               A               G               D
     But I know sometimes I___ must get out___ in the light___.

            Em               A                       D
     Better leave her behind___ where the kids are alright.

  A                 D
     The kids are alright.

  A      D       G            A        D
     Sometimes I feel I gotta get away___.

 G A       D         G            A    D
     Bells chime.  I know I gotta get away

           Em              A               G             D
     And I know if I don't___, I'll go out___ of my mind___.

            Em               A                       D
     Better leave her behind___ where the kids are alright.

 A                  D
     The kids are alright.

 A A*                                    G*
     I know if I'd go, things'd be a lot better for her.

 A*                                               G*
     I had things planned, but her folks wouldn't let her.

             D          G            A       D
     I don't mind other guys dancing with my girl.

 G A        D        G             A      D
     That's fine.  I know them all pretty well

               Em          A            G           D
     But I know sometimes I must get out in the light.

                 Em   [NC]                        D
     Better leave her behind where the kids are alright.

   A                D
     The kids are alright.

(solo -- mostly A, G*, and A*)

 G*      D       G            A    D
     Sometimes I feel I gotta get away.

 G A       D         G            A    D
     Bells chime.  I know I gotta get away

           Em         A              G         D
     And I know if I don't, I'll go out of my mind.

            Em         A                          D     Dsus4  A
     Better leave her behind where the kids are alright_________.

(same pattern, D, Dsus4, A)
The kids are alright.  The kids are alright.

               D
The kids are alright.

Submitted by:  schizo@grex.cyberspace.org.


PjPjPjPjPjPjPjPjPjPjPjPjPjPjPjPjPjPjPjPjPjPjPjPjPjPjPjPjPjPjPjPjPjPjPjPjPjPjPj

Let My Love Open The Door
Pete Townshend

Verse and Chorus are variations on the chord pattern C G F.  

During the "Got the only key to your heart..." bridge the chord pattern is 
Am Dm Bb G.

Submitted by:  ubbaker@mcs.com


PjPjPjPjPjPjPjPjPjPjPjPjPjPjPjPjPjPjPjPjPjPjPjPjPjPjPjPjPjPjPjPjPjPjPjPjPjPjPj

Little Wing
Jimi Hendrix

           Em                         G
Well she's walkin through the clouds

       Am                              Em7
With a circus mind that's running wild

Bm                         Bb       Am                   G
Butterfilies and zebras and moonbeams and, uh, fairy tales

       Fadd9                      C               D       D
That's all she ever thingks about, riding with the wind

         Em                  G
When I'm sad, she comes to me

        Am                             Em7
With a thousand smiles she gives to me        free

Bm                         Bb       Am
It's alright, she says it's alright

     C                G
Take anything you want from me

Fadd9    C   D        D
Anything     Anything

Em    G                  Am7
      Fly on Little Wing

Em7   Bm7   Bb   Am   C    G   Fadd9   C   D   D

Em                    G
   Yea, yea, yea, yea  little baby

Am7   Em7   (fade out)

Submitted by:  ecummin@nma.mnet.uswest.com


PjPjPjPjPjPjPjPjPjPjPjPjPjPjPjPjPjPjPjPjPjPjPjPjPjPjPjPjPjPjPjPjPjPjPjPjPjPjPj

Masters of War 
Bob Dylan

Am    Am7 Am

Am               Am Am7 Am
Come you masters of war
Am                      Am Am7 Am
You that build the big guns
Am                      Am Am7 Am
You that build the death planes
Am                        Am Am7 Am
You that build all the bombs
Am                     Am Am7 Am
You that hide behind walls
Am                      Am Am7 Am
You that hide behind desks
Am     C           G          F                Am     Am7 Am
I just want you to know I can see through your masks

And the song just continues in that vein for the rest of the
verses:

You that never have done nothin' but build to destroy
You play with my world like it's your little toy
You put a gun in my hand then you hide from my eyes
Then you turn and run farther when the fast bullets fly

Like Judas of old you lie and deceive
A world war can't be won, and you want me to believe
But I see through your eyes and I see through your brain
Like I see through the water that runs down my drain

You that fasten all the triggers for the others to fire
Then you sit back and watch while the death count gets
higher
You hide in your mansions while the young people's blood
Flows out of their bodies and gets buried in the mud

You've thrown the worst fear that can ever be hurled
Fear to bring children into the world
For threatening my baby, unborn and unnamed
You ain't worth the blood that runs in your veins

How much do I know to talk out of turn
You might say that I'm young, you might say I'm unlearned
But there's one thing I know, though I'm younger than you
Even Jesus would never forgive what you do

Let me ask you one question:  is your money that good?
Will it buy you forgiveness?  Do you think that it could?
I think you will find when your death takes its toll
All the money you made won't ever buy back your soul

And I hope that you die and your death will come soon
I'll follow your casket through the pale afternoon
And I'll watch while you're lowered into your death bed
Then I'll stand over your grave till I'm sure that you're
dead

Submitted by:  jgladman@uoguelph.ca


PjPjPjPjPjPjPjPjPjPjPjPjPjPjPjPjPjPjPjPjPjPjPjPjPjPjPjPjPjPjPjPjPjPjPjPjPjPjPj

Patriot

  D                 G  
And the rivers shall open for the righteous  (2x)
And the rivers shall open for the righteous, someday
        D     G         D       G 
I went walking, with my brother
        D     G           A   G
And he wondered, oh, how I am
   :
        D    G                D       G 
I am a patriot, and I love my country
   :
               D        G                D        G 
And I ain't no communist, and I ain't no socialist
And I ain't no capitalist, and I ain't no imperialist
And I ain't no democrat, I sure ain't no republican either
                D     G            D     G  D     G     A
I only know one party, and that is freedom, I am, I am, I am


PjPjPjPjPjPjPjPjPjPjPjPjPjPjPjPjPjPjPjPjPjPjPjPjPjPjPjPjPjPjPjPjPjPjPjPjPjPjPj

Redemption Song
Bob Marley

------------------------------------------------------------------------------
------------------------------------------------------------------------------
------------------------------------------------------------------------------
-----------------------2---O--------------------O-----------------------------
------O---2--------3-----------2--------O---2-------2----3---O----------------
--3-----------3---------------------3----------------------------3------------

------------------------------------------------------------------------------
------------------------------------------------------------------------------
------------------------------------------------------------------------------
-----------------------2---O--------------------O-----------------------------
------O---2--------3-----------2--------O---2--------3---O--------------------
--3-----------3---------------------3------------------------3----------------

    G                      Em7
Old Pirates, yes, they rob I.
    C         G/B             Am
Sold I to the merchant ships
G                      Em  C         G/B       Am
minutes after they took I   from the bottomless pit.
       G            Em7
But my hand was made strong
C           G/B          Am
By the hand of the Almighty.
     G                  Em   C          D
We forward in this generation triumphantly.

Chorus
                         G  C    D          G
   Won't you help to sing    these songs of freedom?
          C     D       Em  C   D      G
   'Cause all I ever had,    redemption songs,
  C   D      G        C
   redemption songs.
D     G                           Em7
Emancipate yourselves from mental slavery,
           C           G/B             Am
None but ourselves can free our minds.
       G                    Em
Have no fear for atomic energy,
              C         G/B            Am
'Cause none of them can stop the time.
    G                        Em7
How long shall they kill our prophets
        C       G/B            Am
While we stand aside and look?
             G            Em
Yes, some say it's just a part of it.
      C                 D
We've got to fulfill the book.

Chorus

Emancipate yourselves from mental slavery,
None but ourselves can free our minds.
Have no fear for atomic energy,
'Cause none of them can stop the time.
How long shall they kill our prophets
While we stand aside and look?
Yes, some say it's just a part of it.
We've got to fulfill the book.
Won't you help to sing these songs of freedom?
'Cause all I ever had, redemption songs,
These songs of freedom, songs of freedom.

G       320003          Em7     020000
C       x32010          G/B     x20003
Am      x02210          Em      022000
D       xx0232

Submitted by:  bcurry@hpb.hwc.ca 


PjPjPjPjPjPjPjPjPjPjPjPjPjPjPjPjPjPjPjPjPjPjPjPjPjPjPjPjPjPjPjPjPjPjPjPjPjPjPj

Rockin' in the Free World
Neil Young

Intro/Verse:

For the verses you basically need: Em, D and C
but the strumming pattern and fretting actually
involve a G. Here's how to strum the Em measure 
(intro and verse alike):

Em
-
(1 +  2  +  3  +  4  +)
DN UP DN UP DN UP DN UP 
B  -  $  $  -  $  $  $  

Meaning it is an Em chord for the whole measure,
play only the bass note (the E string) on the first
beat (indicated by the 'B' -from Bass- above), the '-' means don't
strum on the strings and a '$' means play the chord indicated
above (Em in this case).

The D and C measure is strummed as follows:
D     N  C           N
-     -  -           -
DN UP DN UP DN UP DN UP
$  $  $  $  -  $  $  $

Meaning play a D chord for the first beat then on the
down stroke of the second beat hit the strings without
any fretting (indicated by 'N' above), this would actually
sound as a G (especially that you're most likely to hit only
the D, G, B and E strings). Then directly play a C chord on
the up-stroke of the second beat (in fact you'd ready your fingers
for the C chord while hitting the "G chord"). The same trick is
done at the last up-stroke of the 4th
Добавлено: 18.02.2014
Другие материалы по этой песне:
  • Аккорды и текст

Страница создана 27.08.2013
http://primanota.ru/pearl-jam/covers-chords.htm
Привет, Гость.
Предлагаем пройти революционный курс по гитаре.
Подарок от PrimaNota.Ru, забирай!