PrimaNota.ru - самый крупный в мире бесплатный архив песенных текстов, аккордов, табулатур и нот


Pearl Jam - Bee Girl - текст песни, таба, видео

Регистрация Запомнить меня
Войти через:  Facebook Google Twitter Vk Yandex Mail.ru

Pearl Jam - Bee Girl - текст песни, таба, видео

Печатать
Просмотров: 137
Авторы музыки: Jeff Ament
Авторы текста: Eddie Vedder, Jeff Ament
Author/Artist: Eddie Vedder and Jeff Ament
Title: Bee Girl
Transcribed by: Evan Cowan
Email: ecowan@uclink4.berkeley.edu

Tune your B (2nd string) up a half step to a C.
Tuning, low to high: EADGCE

This tab is of the version Ed and Jeff played live at a radio station
a long time ago

-|-0---0-0-0-------------0--0-0-0-0------0-0-0-|------------------------------
-|-0---0-0-0--0---0-0-0--0--0-0-0-0------0-0-0-|------------------------------
-|-0---0-0-0--0---0-0-0--0--0-0-0-0------0-0-0-|------------------------------
-|-2---2-2-2--3---3-3-3--2----2-2-2------2-2-2-|------------------------------
-|-3---3-3-3--5---5-5-5--3----3-3-3------3-3-3-|------------------------------
-|-----------------------------------3---------|------------------------------


-|-0---0-0-0-------------0----0--0-0-0-0-|------------------------------------
-|-0---0-0-0--0---0-0-0--0----0--0-0-0-0-|------------------------------------
-|-0---0-0-0--0---0-0-0--0----0--0-0-0-0-|------------------------------------
-|-2---2-2-2--3---3-3-3--2----2--2-2-2-2-|------------------------------------
-|-3---3-3-3--5---5-5-5--3----3--3-3-3-3-|------------------------------------
-|---------------------------------------|------------------------------------
Bee girl              you're gonna die

-|-0---0-0-0-------------0---0-0-0--0---0-0-0-|-------------------------------
-|-0---0-0-0--0---0-0-0--0---0-0-0--0---0-0-0-|-------------------------------
-|-0---0-0-0--0---0-0-0--0---0-0-0--0---0-0-0-|-------------------------------
-|-2---2-2-2--3---3-3-3--2---2-2-2--2---2-2-2-|-------------------------------
-|-3---3-3-3--5---5-5-5--3---3-3-3--3---3-3-3-|-------------------------------
-|--------------------------------------------|-------------------------------
You don't want to be famous you wanna be

-|-0---0-0-0-------------0---0-0-0--0---0-0-0-|-------------------------------
-|-0---0-0-0--0---0-0-0--0---0-0-0--0---0-0-0-|-------------------------------
-|-0---0-0-0--0---0-0-0--0---0-0-0--0---0-0-0-|-------------------------------
-|-2---2-2-2--3---3-3-3--2---2-2-2--2---2-2-2-|-------------------------------
-|-3---3-3-3--5---5-5-5--3---3-3-3--3---3-3-3-|-------------------------------
-|--------------------------------------------|-------------------------------
Shy        do  your   dances    alone in your

-|-0---0-0-0-------------0---0-0-0--0---0-0-0-|-------------------------------
-|-0---0-0-0--0---0-0-0--0---0-0-0--0---0-0-0-|-------------------------------
-|-0---0-0-0--0---0-0-0--0---0-0-0--0---0-0-0-|-------------------------------
-|-2---2-2-2--3---3-3-3--2---2-2-2--2---2-2-2-|-------------------------------
-|-3---3-3-3--5---5-5-5--3---3-3-3--3---3-3-3-|-------------------------------
-|--------------------------------------------|-------------------------------
Room       becoming a star will become your

-|-0---0-0-0-------------0---0-0-0-|------------------------------------------
-|-0---0-0-0--0---0-0-0--0---0-0-0-|------------------------------------------
-|-0---0-0-0--0---0-0-0--0---0-0-0-|------------------------------------------
-|-2---2-2-2--3---3-3-3--2---2-2-2-|------------------------------------------
-|-3---3-3-3--5---5-5-5--3---3-3-3-|------------------------------------------
-|---------------------------------|------------------------------------------
Doom

-|-0---0-0-0-------------------------------------------------|----------------
-|-0---0-0-0--0---0-0-0--0---0-0-0--0---0-0-0---0----0--0--0-|----------------
-|-0---0-0-0--0---0-0-0--0---0-0-0--0---0-0-0---0----0--0--0-|----------------
-|-2---2-2-2--7---7-7-7--7---7-7-7--7---7-7-7---9----9--9--9-|----------------
-|-3---3-3-3--8---8-8-8--8---8-8-8--8---8-8-8--10---10-10-10-|----------------
-|-----------------------------------------------------------|----------------
Bee        girl                              be a

-|-0---0-0-0--0---0-0-0--0---0-0-0-|------------------------------------------
-|-0---0-0-0--0---0-0-0--0---0-0-0-|------------------------------------------
-|-0---0-0-0--0---0-0-0--0---0-0-0-|------------------------------------------
-|-2---2-2-2--2---2-2-2--2---2-2-2-|------------------------------------------
-|-3---3-3-3--3---3-3-3--3---3-3-3-|------------------------------------------
-|---------------------------------|------------------------------------------
Girl

-|-0---0-0-0-------------------------------------------------|----------------
-|-0---0-0-0--0---0-0-0--0---0-0-0--0---0-0-0---0----0--0--0-|----------------
-|-0---0-0-0--0---0-0-0--0---0-0-0--0---0-0-0---0----0--0--0-|----------------
-|-2---2-2-2--7---7-7-7--7---7-7-7--7---7-7-7---9----9--9--9-|----------------
-|-3---3-3-3--8---8-8-8--8---8-8-8--8---8-8-8--10---10-10-10-|----------------
-|-----------------------------------------------------------|----------------
Bee        girl                              be a

-|-0---0-0-0--0---0-0-0--0---0-0-0--0---0-0-0-|-------------------------------
-|-0---0-0-0--0---0-0-0--0---0-0-0--0---0-0-0-|-------------------------------
-|-0---0-0-0--0---0-0-0--0---0-0-0--0---0-0-0-|-------------------------------
-|-2---2-2-2--2---2-2-2--2---2-2-2--2---2-2-2-|-------------------------------
-|-3---3-3-3--3---3-3-3--3---3-3-3--3---3-3-3-|-------------------------------
-|--------------------------------------------|-------------------------------
Girl                               You know

-|-0---0-0-0-------------0---0-0-0--0---0-0-0-|-------------------------------
-|-0---0-0-0--0---0-0-0--0---0-0-0--0---0-0-0-|-------------------------------
-|-0---0-0-0--0---0-0-0--0---0-0-0--0---0-0-0-|-------------------------------
-|-2---2-2-2--3---3-3-3--2---2-2-2--2---2-2-2-|-------------------------------
-|-3---3-3-3--5---5-5-5--3---3-3-3--3---3-3-3-|-------------------------------
-|--------------------------------------------|-------------------------------
Time is long    and life is short       be-

-|-0---0-0-0-------------0---0-0-0--0---0-0-0-|-------------------------------
-|-0---0-0-0--0---0-0-0--0---0-0-0--0---0-0-0-|-------------------------------
-|-0---0-0-0--0---0-0-0--0---0-0-0--0---0-0-0-|-------------------------------
-|-2---2-2-2--3---3-3-3--2---2-2-2--2---2-2-2-|-------------------------------
-|-3---3-3-3--5---5-5-5--3---3-3-3--3---3-3-3-|-------------------------------
-|--------------------------------------------|-------------------------------
-gin to live  while you still can   believe in

-|-0---0-0-0-------------0---0-0-0--0---0-0-0-|-------------------------------
-|-0---0-0-0--0---0-0-0--0---0-0-0--0---0-0-0-|-------------------------------
-|-0---0-0-0--0---0-0-0--0---0-0-0--0---0-0-0-|-------------------------------
-|-2---2-2-2--3---3-3-3--2---2-2-2--2---2-2-2-|-------------------------------
-|-3---3-3-3--5---5-5-5--3---3-3-3--x---x-x-x-|-------------------------------
-|----------------------------------3---3-3-3-|-------------------------------
Nothing      believe me            those who

-|-0---0-0-0-------------0---0-0-0--0---0-0-0-|-------------------------------
-|-0---0-0-0--0---0-0-0--0---0-0-0--0---0-0-0-|-------------------------------
-|-0---0-0-0--0---0-0-0--0---0-0-0--0---0-0-0-|-------------------------------
-|-2---2-2-2--3---3-3-3--2---2-2-2--2---2-2-2-|-------------------------------
-|-3---3-3-3--5---5-5-5--3---3-3-3--3---3-3-3-|-------------------------------
-|--------------------------------------------|-------------------------------
Can be trusted  can change their mind  and the

-|----------------------------------------------------|-----------------------
-|-0---0-0-0--0---0-0-0---0----0--0--0---0----0--0--0-|-----------------------
-|-0---0-0-0--0---0-0-0---0----0--0--0---0----0--0--0-|-----------------------
-|-7---7-7-7--7---7-7-7---9----9--9--9---9----9--9--9-|-----------------------
-|-8---8-8-8--8---8-8-8--10---10-10-10--10---10-10-10-|-----------------------
-|----------------------------------------------------|-----------------------
Anxious         is the present             un -

-|-0---0-0-0--0---0-0-0--0---0-0-0--0---0-0-0-|-------------------------------
-|-0---0-0-0--0---0-0-0--0---0-0-0--0---0-0-0-|-------------------------------
-|-0---0-0-0--0---0-0-0--0---0-0-0--0---0-0-0-|-------------------------------
-|-2---2-2-2--2---2-2-2--2---2-2-2--2---2-2-2-|-------------------------------
-|-3---3-3-3--3---3-3-3--3---3-3-3--3---3-3-3-|-------------------------------
-|--------------------------------------------|-------------------------------
- wrap your gifts take your time

-|----------------------------------------------------|-----------------------
-|-0---0-0-0--0---0-0-0---0----0--0--0---0----0--0--0-|-----------------------
-|-0---0-0-0--0---0-0-0---0----0--0--0---0----0--0--0-|-----------------------
-|-7---7-7-7--7---7-7-7---9----9--9--9---9----9--9--9-|-----------------------
-|-8---8-8-8--8---8-8-8--10---10-10-10--10---10-10-10-|-----------------------
-|----------------------------------------------------|-----------------------
Everything        you  imagined        needn't be

-|-0---0-0-0--0---0-0-0--0---0-0-0--0---0-0-0-|-------------------------------
-|-0---0-0-0--0---0-0-0--0---0-0-0--0---0-0-0-|-------------------------------
-|-0---0-0-0--0---0-0-0--0---0-0-0--0---0-0-0-|-------------------------------
-|-2---2-2-2--2---2-2-2--2---2-2-2--2---2-2-2-|-------------------------------
-|-3---3-3-3--3---3-3-3--3---3-3-3--3---3-3-3-|-------------------------------
-|--------------------------------------------|-------------------------------
Stuck         in your mind           bee

-|-0---0-0-0-------------0---0-0-0--0---0-0-0-|-------------------------------
-|-0---0-0-0--0---0-0-0--0---0-0-0--0---0-0-0-|-------------------------------
-|-0---0-0-0--0---0-0-0--0---0-0-0--0---0-0-0-|-------------------------------
-|-2---2-2-2--3---3-3-3--2---2-2-2--2---2-2-2-|-------------------------------
-|-3---3-3-3--5---5-5-5--3---3-3-3--3---3-3-3-|-------------------------------
-|--------------------------------------------|-------------------------------
Girl                             be a

-|-0---0-0-0-------------0---0-0-0--0---0-0-0-|-------------------------------
-|-0---0-0-0--0---0-0-0--0---0-0-0--0---0-0-0-|-------------------------------
-|-0---0-0-0--0---0-0-0--0---0-0-0--0---0-0-0-|-------------------------------
-|-2---2-2-2--3---3-3-3--2---2-2-2--2---2-2-2-|-------------------------------
-|-3---3-3-3--5---5-5-5--3---3-3-3--3---3-3-3-|-------------------------------
-|--------------------------------------------|-------------------------------
Girl                                 bee

-|-0---0-0-0-------------0---0-0-0--0---0-0-0-|-------------------------------
-|-0---0-0-0--0---0-0-0--0---0-0-0--0---0-0-0-|-------------------------------
-|-0---0-0-0--0---0-0-0--0---0-0-0--0---0-0-0-|-------------------------------
-|-2---2-2-2--3---3-3-3--2---2-2-2--2---2-2-2-|-------------------------------
-|-3---3-3-3--5---5-5-5--3---3-3-3--3---3-3-3-|-------------------------------
-|--------------------------------------------|-------------------------------
Girl                             be a

-|-0---0-0-0----------------||------------------------------------------------
-|-0---0-0-0--0---0-0-0-----||------------------------------------------------
-|-0---0-0-0--0---0-0-0--0--||------------------------------------------------
-|-2---2-2-2--3---3-3-3--2--||------------------------------------------------
-|-3---3-3-3--5---5-5-5--3--||------------------------------------------------
-|--------------------------||------------------------------------------------
Girl
Добавлено: 07.03.2012
Другие материалы по этой песне:
  • Аккорды и текст

Страница создана 07.03.2012
http://primanota.ru/pearl-jam/bee-girl-chords.htm
Привет, Гость.
Предлагаем пройти революционный курс по гитаре.
Подарок от PrimaNota.Ru, забирай!