PrimaNota.ru - самый крупный в мире бесплатный архив песенных текстов, аккордов, табулатур и нот


Peadar Kearney - Irish National Anthem - таба, видео

Регистрация Запомнить меня
Войти через:  Facebook Google Twitter Vk Yandex Mail.ru

Peadar Kearney - Irish National Anthem - таба, видео

Печатать
Просмотров: 76
Уроки эстрадного вокала в Санкт-Петербурге
The National Anthem of the Republic of Ireland. 


The text of The Soldier's Song (Amhrán na bhFiann),was written in 1907 by Peadar Kearney, 
an uncle of Brendan Behan, who together with Patrick Heeney also composed the music. 
It was first published in the newspaper, Irish Freedom in 1912. 




IN THE KEY OF A:

E|------------|---------------|-------|-----------------|--
B|------------|---------------|-------|-----------------|--
G|----4-6-----|---------------|-------|-------4-6-4-----|--
D|--7-----7---|---4-4---4-----|-7-6-4-|-4-6-7-------4-6-|--
A|----------7-|-7-----5---7-7-|-------|-----------------|--
E|------------|---------------|-------|-----------------|--


E|------------|---------------|---------------|---------------------|-----------------|--
B|------------|---------------|---------------|---------------------|-----------------|--
G|----4-6-----|---------------|---------------|---------------------|-----------------|--
D|--7-----7---|---4-4---4-----|-7---6-6-4-----|-----------------4---|-7-6-4-6-4-------|--
A|----------7-|-7-----5---7-7-|-----------7-7-|-7-5-4-5---4-5-7---7-|-----------7-5---|--
E|------------|---------------|---------------|---------7-----------|---------------7-|--


E|------------|-------------|-----------------|--
B|------------|-------------|-----------------|--
G|------------|---------4-6-|---------6-4-----|--
D|------------|---4-6-7-----|-7-4---7-----7-7-|--
A|--7-4---4-7-|-7-----------|-----7-----------|--
E|------5-----|-------------|-----------------|--




IN THE KEY OF E:

E|------4-----|---------------|-------|---------4-------|--
B|--5-7---5---|---------------|-5-4---|---4-5-7---7---4-|--
G|----------4-|-4-6-6---6-4-4-|-----6-|-6-----------6---|--
D|------------|-------7-------|-------|-----------------|--
A|------------|---------------|-------|-----------------|--
E|------------|---------------|-------|-----------------|--


E|------4-----|---------------|-------------|---------------------|-----------------|--
B|--5-7---5---|---------------|-4-4-4-------|---------------------|-5-4---4---------|--
G|----------4-|-4-6-6---6-4-4-|-------6-4-4-|-4-------------4-6-4-|-----6---6-4-----|--
D|------------|-------7-------|-------------|---7-6-7-4-6-7-------|-------------7-4-|--
A|------------|---------------|-------------|---------------------|-----------------|--
E|------------|---------------|-------------|---------------------|-----------------|--


E|------------|-----------4-|---------4-------|--
B|------------|-----4-5-7---|-5-----5---7-5-5-|--
G|--4-------4-|-4-6---------|---6-4-----------|--
D|----6---6---|-------------|-----------------|--
A|------7-----|-------------|-----------------|--
E|------------|-------------|-----------------|--




IN THE KEY OF C:

E|------------|---------------|-------|-----------------|--
B|------5-----|---------------|-------|---------5-------|--
G|--5-7---5---|---------------|-5-4---|---4-5-7---7---4-|--
D|----------5-|-5-7-7---7-5-5-|-----7-|-7-----------7---|--
A|------------|-------8-------|-------|-----------------|--
E|------------|---------------|-------|-----------------|--


E|------------|---------------|-------------|---------------------|-----------------|--
B|------5-----|---------------|-------------|---------------------|-----------------|--
G|--5-7---5---|---------------|-4-4-4-------|---------------------|-5-4---4---------|--
D|----------5-|-5-7-7---7-5-5-|-------7-5-5-|-5-------------5-6-5-|-----7---7-5-----|--
A|------------|-------8-------|-------------|---8-7-8-5-7-8-------|-------------8-5-|--
E|------------|---------------|-------------|---------------------|-----------------|--


E|------------|-------------|-----------------|--
B|------------|-----------5-|---------5-------|--
G|------------|-----4-5-7---|-5-----5---7-5-5-|--
D|--5-------5-|-5-7---------|---7-5-----------|--
A|----7---7---|-------------|-----------------|--
E|------8-----|-------------|-----------------|--





The Soldiers Song


We'll sing a song, a soldier's song
With cheering rousing chorus
As round our blazing fires we throng
The starry heavens o'er us
Impatient for the coming fight
And as we wait the morning's light
Here in the silence of the night
We'll chant a soldier's song

Soldiers are we
whose lives are pledged to Ireland
Some have come
from a land beyond the wave
Sworn to be free
No more our ancient sire land
Shall shelter the despot or the slave
Tonight we man the gap of danger
In Erin's cause, come woe or weal
'Mid cannons' roar and rifles peal
We'll chant a soldier's song

In valley green, on towering crag
Our fathers fought before us
And conquered 'neath the same old flag
That's proudly floating o'er us
We're children of a fighting race
That never yet has known disgrace
And as we march, the foe to face
We'll chant a soldier's song

Soldiers are we
whose lives are pledged to Ireland
Some have come
from a land beyond the wave
Sworn to be free
No more our ancient sire land
Shall shelter the despot or the slave
Tonight we man the gap of danger
In Erin's cause, come woe or weal
'Mid cannons' roar and rifles peal
We'll chant a soldier's song

Sons of the Gael! Men of the Pale!
The long watched day is breaking
The serried ranks of Inisfail
Shall set the Tyrant quaking
Our camp fires now are burning low
See in the east a silv'ry glow
Out yonder waits the Saxon foe
So chant a soldier's song

Soldiers are we
whose lives are pledged to Ireland
Some have come
from a land beyond the wave
Sworn to be free
No more our ancient sire land
Shall shelter the despot or the slave
Tonight we man the gap of danger
In Erin's cause, come woe or weal
'Mid cannons' roar and rifles peal
We'll chant a soldier's song









Tabbed by Dominic Comerford 2012
Добавлено: 13.07.2013
Другие материалы по этой песне:
  • Аккорды и текст

Страница создана 13.07.2013
http://primanota.ru/peadar-kearney/irish-national-anthem-chords.htm
Привет, Гость.
Предлагаем пройти революционный курс по гитаре.
Подарок от PrimaNota.Ru, забирай!