PrimaNota.ru - самый крупный в мире бесплатный архив песенных текстов, аккордов, табулатур и нот


Peaches - Talk to Me - текст песни, таба, видео

Регистрация Запомнить меня
Войти через:  Facebook Google Twitter Vk Yandex Mail.ru

Peaches - Talk to Me - текст песни, таба, видео

Печатать
Просмотров: 50
-------------------------------------------------------------------------------
                             TALK TO ME - Peaches
-------------------------------------------------------------------------------
Tabbed by: George Aitch


Tuning: eBGDAD

Intro
e|---------------------------------------------------------------------------|
B|---------------------------------------------------------------------------|
G|---------------------------------------------------------------------------|
D|-8-x-8-x-8-x-8-x-8-x-8-x-8-------------------------------------------------|
A|-8-x-8-x-8-x-8-x-8-x-8-x-8-------------------------------------------------|
E|-8-x-8-x-8-x-8-x-8-x-8-x-8-------------------------------------------------|

Verse
e|---------------------------------------------------------------------------|
B|---------------------------------------------------------------------------|
G|---------------------------------------------------------------------------| x2
D|-8--8--8-8-8--8--8/11-11---------------------------------------------------|
A|-8--8--8-8-8--8--8/11-11---------------------------------------------------|
E|-8--8--8-8-8--8--8/11-11---------------------------------------------------|

e|---------------------------------------------------------------------------|
B|---------------------------------------------------------------------------|
G|---------------------------------------------------------------------------|
D|-6--6--6-6--3-3-3-3-3--1-1-1-1-1-1-1-0-0-----------------------------------|
A|-6--6--6-6--3-3-3-3-3--1-1-1-1-1-1-1-0-0-----------------------------------|
E|-6--6--6-6--3-3-3-3-3--1-1-1-1-1-1-1-0-0-----------------------------------|

Sometimes this plays tremolo over the verse

e|--19--17--13--11-----------------------------------------------------------|
B|---------------------------------------------------------------------------|
G|---------------------------------------------------------------------------|
D|---------------------------------------------------------------------------|
A|---------------------------------------------------------------------------|
E|---------------------------------------------------------------------------|




************************************

| /   slide up
| \   slide down
| h   hammer-on
| p   pull-off
| ~   vibrato
| +   harmonic
| x   Mute note
| b   Bend
| pb  Pre-bend
| br  Bend release
| pbr Pre-bend release
| brb Bend release bend

************************************
Добавлено: 12.11.2015
Другие материалы по этой песне:
  • Аккорды и текст

Страница создана 26.11.2013
http://primanota.ru/peaches/talk-to-me-chords.htm
Привет, Гость.
Предлагаем пройти революционный курс по гитаре.
Подарок от PrimaNota.Ru, забирай!