PrimaNota.ru - самый крупный в мире бесплатный архив песенных текстов, аккордов, табулатур и нот


Peaches - Rosa Helikopter - аккорды и текст, видео

Регистрация Запомнить меня
Войти через:  Facebook Google Twitter Vk Yandex Mail.ru

Peaches - Rosa Helikopter - аккорды и текст, видео

Печатать
Просмотров: 114
Rosa Helikopter
Peaches
song: rosa helikopter
band: peaches
album: ?
tabbed by: joel (j_sorensson@hotmail.com)

Jag hade bättre saker jag borde gjort. Men jag kunde inte låta bli att ta ut
den är super-hiten. Om ditt band någon gång spelar på ett knatte disco kan 
den
vara kul att lira. Jag orkade inte lista ut vad den drillande synten i
bakgrunden spelar. Ni får hålla tillgodo med ackorden och det lilla riffet.
Se till att sångerskan/sångaren har en autotuner på max och att 
trummslagaren
bara använder baskaggen.


Ref:
I en rosa helikopter xxxxx xxx xxxxx xxx xxxx xxx
I en rosa helikopter, xx, xx xxxxxx xxx xxxx xxx xxxxx xxx
I en rosa helikopter xxxx xxxxx xxx xxxx xxx
I en rosa helikopter, xx, xx xxxxxx xxx xxxxx xxxxxxxxxxx

synt riff:
e-------------------------------------------------
b-7-----------7-7-----------7-7---------7-8-8--7--
g----7--7-7-9------7--7-7-9------9--9-9-----------
d-------------------------------------------------
a-------------------------------------------------
e-------------------------------------------------

e-----7-10-9--7--7-7-9-10-9-------7-9-10-12--10--
b-7-7------------------------8--8----------------
g------------------------------------------------
d------------------------------------------------
a------------------------------------------------
e------------------------------------------------

e----10-12-14-15--15------15-----14---12--
b-12--------------------------------------
g---------------------1212---1111---99----
d-----------------------------------------
a-----------------------------------------
e-----------------------------------------

D                                             A
Ligger vaken i xxx xxxx xxxx x xxxxxx xxx xxxxxxx xx xxx
D                                       A
Jag har kännt xxx xxxx xxxxxxx xxxxxx xxx
D                                          A
Ligger ensam i xxxx xxx xxxx xxxxxxx xxx xxxxxx xx xxx
          G                D       G
och jag vet xxx xxx xxxx,   xxx xxxx xxx xxxx xxxxxx xx xxxx xxxx

Ref:
      D                         A             B
I en rosa helikopter xxxxx xxx xxxxx xxx xxxx xxx
              G                D                  G
I en rosa helikopter, xx, xx xxxxxx xxx xxxx xxx xxxxx xxx
      D                     A             B
I en rosa helikopter xxxx xxxxx xxx xxxx xxx
               G               D                    Cm?
I en rosa helikopter, xx, xx xxxxxx xxx xxxxx xxxxxxxxxx xxxx xxx

synt riff.

Kommer tidigt xxxx xxxxxxx, xxxx xxx xxx xxx xxxxxxx xx xxx
för jag xxxxx xxxx xx xx xx xxxxx xxx xxx
när vi xxxx xxxxxx xx xxxx xx xxx xxx xxxxxxx xx xxx
och jag vet xxx xxx xxxx, xxx xxxx xxx xxxx xxxxxx xxx xxxx xxx


I en rosa helikopter...
I en rosa helikopter...


Tips på ackord:
D:  x,x,x,14,15,x
A:  x,x,14,14,x,x
G:  x,x,12,12,x,x
B:  x,x,x,11,13,x
Am: x,x,10,14,x,x
     
Добавлено: 09.06.2013
Вам также может быть интересно:
Другие материалы по этой песне:
  • Аккорды и текст

Страница создана 09.06.2013
http://primanota.ru/peaches/rosa-helikopter-chords.htm
Привет, Гость.
Предлагаем пройти революционный курс по гитаре.
Подарок от PrimaNota.Ru, забирай!