PrimaNota.ru - самый крупный в мире бесплатный архив песенных текстов, аккордов, табулатур и нот


Peach Kelli Pop - Heart Eyes - таба, видео

Регистрация Запомнить меня
Войти через:  Facebook Google Twitter Vk Yandex Mail.ru

Peach Kelli Pop - Heart Eyes - таба, видео

Печатать
Просмотров: 35
Peach Kelli Pop - Heart Eyes
Track 3 from the album "Peach Kelli Pop III" (Burger Records 2015).

Tabbed by Isaac Murguia, January 2016.
Originally uploaded to Ultimate-Guitar.com
Contact: www.youtube.com/user/Goadiroth

INTRO:
e|-----------------------------------------------------|
B|-----------------------------------------------------|
G|-10-1010101010-x-7-77777-x---------------------------|
D|-10-1010101010-x-7-77777-x-7-77777-x-10-1010101010-x-|
A|-8--8-8-8-8-8--x-5-55555-x-7-77777-x-10-1010101010-x-|
E|---------------------------5-55555-x-8--8-8-8-8-8--x-| [x2]

PRE-CHORUS:
  Guitar 1
e|---------------------|---------------------|----------------------|
B|---------------------|---------------------|----------------------|
G|-10-9-10-9-10-9-10-9-|-10-9-10-9-10-9-10-9-|-------9-----------9--|
D|---------------------|---------------------|-10-10-----1010-10----|
A|---------------------|---------------------|----------------------|
E|---------------------|---------------------|----------------------| [x2]

  Guitar 2 (same as INTRO)

VERSE:
e|-----------------------|
B|-----------------------|
G|-1010-x-77-x-----------|
D|-1010-x-77-x-77-x-88-x-|
A|-8-8--x-55-x-77-x-88-x-|
E|-------------55-x-66-x-| [x4]

Repeat PRE-CHORUS
Repeat VERSE
Repeat PRE-CHORUS

CHORUS:
  Guitar 1
e|-------------------------|-------------------------|-----------------------|-------------------------|
B|-11-10-11-10-11-10-------|-11-10-11-10-11-10-------|-11-10-11-10-----------|-11-10-11-10-11-10-------|
G|-------------------12-10-|-------------------12-10-|-------------12-10-9-7-|-------------------12-10-|
D|-------------------------|-------------------------|-----------------------|-------------------------|
A|-------------------------|-------------------------|-----------------------|-------------------------|
E|-------------------------|-------------------------|-----------------------|-------------------------|
  Guitar 2
e|------------------------------------------------------------------------------|
B|------------------------------------------------------------------------------|
G|------------------------------------------------------------------------------|
D|-3-333333-333333-7-777777-777777-8-888888-888888-10-101010101010-101010101010-|
A|-3-333333-333333-7-777777-777777-8-888888-888888-10-101010101010-101010101010-|
E|-1-111111-111111-5-555555-555555-6-666666-666666-8--8-8-8-8-8-8--8-8-8-8-8-8--| [x2]

VERSE VARIATION:
  Guitar 1                                       [x2]
e|-------------------------|-------------------------|-------------------------|
B|-11-10-11-10-11-10-11-10-|-11-10-11-10-11-10-------|-11-10-11-10-11-10-11-10-|
G|-------------------------|-------------------12-10-|-------------------------|
D|-------------------------|-------------------------|-------------------------|
A|-------------------------|-------------------------|-------------------------|
E|-------------------------|-------------------------|-------------------------|

  Guitar 2 (same as VERSE x8 instead of x4)

PRE-CHORUS VARIATION:
  Guitar 1 (same as PRE-CHORUS x4 instead of x2)

  Guitar 2
e|-----------------------------------------------------|
B|-----------------------------------------------------|
G|-10-1010101010-x-7-77777-x---------------------------|
D|-10-1010101010-x-7-77777-x-8-88888-x-10-1010101010-x-|
A|-8--8-8-8-8-8--x-5-55555-x-8-88888-x-10-1010101010-x-|
E|---------------------------6-66666-x-8--8-8-8-8-8--x-| [x4]

CHORUS VARIATION:
  Guitar 1
e|-----------------------|-------------------------|-------------------------|-----------------------|
B|-11-10-11-10-----------|-11-10-11-10-11-10-------|-11-10-11-10-11-10-------|-11-10-11-10-----------|
G|-------------12-10-9-7-|-------------------12-10-|-------------------12-10-|-------------12-10-9-7-|
D|-----------------------|-------------------------|-------------------------|-----------------------|
A|-----------------------|-------------------------|-------------------------|-----------------------|
E|-----------------------|-------------------------|-------------------------|-----------------------|

e|-------------------------|-----------------------|-------------------------|-----------------------|
B|-11-10-11-10-11-10-------|-11-10-11-10-----------|-11-10-11-10-11-10-------|-11-10-11-10-----------|
G|-------------------12-10-|-------------12-10-9-7-|-------------------12-10-|-------------12-10-9-7-|
D|-------------------------|-----------------------|-------------------------|-----------------------|
A|-------------------------|-----------------------|-------------------------|-----------------------|
E|-------------------------|-----------------------|-------------------------|-----------------------|

  Guitar 2 (same as CHORUS x4 instead of x2)

OUTRO:
  Guitar 1             [x3]
e|-------------------------|------------------------------|
B|-11-11-10-10-11-11-10-10-|-11-11-10-10------------------|
G|-------------------------|-------------12-12-10-10-10~~-|
D|-------------------------|------------------------------|
A|-------------------------|------------------------------|
E|-------------------------|------------------------------|

  Guitar 2 (same as INTRO)

End. Please rate! :D
Добавлено: 14.06.2016
Другие материалы по этой песне:
  • Аккорды и текст

Страница создана 14.06.2016
http://primanota.ru/peach-kelli-pop/heart-eyes-chords.htm
Привет, Гость.
Предлагаем пройти революционный курс по гитаре.
Подарок от PrimaNota.Ru, забирай!