PrimaNota.ru - самый крупный в мире бесплатный архив песенных текстов, аккордов, табулатур и нот


Peacemakers - Tell Yer Momma - аккорды и текст, таба, видео

Регистрация Запомнить меня
Войти через:  Facebook Google Twitter Vk Yandex Mail.ru

Peacemakers - Tell Yer Momma - аккорды и текст, таба, видео

Печатать
Просмотров: 103
Уроки эстрадного вокала в Санкт-Петербурге
Tell Yer Momma
Peacemakers
		   t. See http://www..net/faq/ for more information.                     #
#-----------------------------------------------------------------------------#


Tell Yer Momma
Peacemakers
from Honky Tonk Union album
Tabbed by David Cushman


Capo 1

Intro:
    C              Em             Am             G7
e---------3--------------3--------------3--------1----
B------------1--------------0--------------1-----0----
G---------------0--------------0--------------2--0----
D------2--------------2--------------2-----------0----
A---3--------------2--------------0--------------2----
E------------------------------------------------3----

Verse:
                    C
  Well I used to be bad
   Am
...born...
   G           F
...travelin'...only...
   C
...cool
   Am               G      F
...that Sunday afternoon...stumblin'...
  G
...'Till I met...

  C            Am
  She pulled...terrible...
  F
  I know...
   G
...hard to .....


Chorus:
  C      G         F         G
  Tell...daddy's...drinkin'
  C      G       F          G
  Tell...
  C      G       Am          G              F
  Tell...
   F          G                 C    G7
...tell...

Verse 2

Verse 3

Chorus

Bridge:
   F
...thousand times...
                    C
...blind a thousand times...
   Am     G
...harm...fun again

  "Uh-oh, uh-oh, SCOTTY'S GOT A SOLO!!"
  (Chorus chords over solo) (Tab relative to capo)
e:---------------------------------------------------------------------|
B:---------------------------------------------------------------------|
G:-3/5-5-/4--------------3/5--5/4-----------2-4-/5-5-/7--7/9-/7-/5-5---|
D:----------5-5/6-----------------5-5/6---6----------------------------|
A:----------------3-/5-------------------------------------------------|
E:---------------------------------------------------------------------|

e:-------------------------|
B:-------------------------|
G:5--5/7-------------------|
D:--------5--5/6-----------|
A:---------------7-5-3---/2|
E:-------------------------|

Chorus

C C C G C

For complete lyrics with tab, visit
http://gladstone.uoregon.edu/~dcushman/refresh-peace.html     
Добавлено: 03.08.2013
Другие материалы по этой песне:
  • Аккорды и текст

Страница создана 07.03.2012
http://primanota.ru/peacemakers/tell-yer-momma-chords.htm
Привет, Гость.
Предлагаем пройти революционный курс по гитаре.
Подарок от PrimaNota.Ru, забирай!