PrimaNota.ru - самый крупный в мире бесплатный архив песенных текстов, аккордов, табулатур и нот


Peace - World Pleasure - таба, бас-таба, видео

Регистрация Запомнить меня
Войти через:  Facebook Google Twitter Vk Yandex Mail.ru

Peace - World Pleasure - таба, бас-таба, видео

Печатать
Просмотров: 270
Уроки эстрадного вокала в Санкт-Петербурге
-------------------------------------------------------------------------------
                             World Pleasure - Peace
-------------------------------------------------------------------------------
Tabbed by: Jamison Duff
E-mail: jamison.duff@carleton.ca

So I tabbed this out for bass not to long ago and I got some pretty positive feedback, 
so here are the guitar parts for the song. Enjoy!

Tuning: EADGBe (Standard)
Tempo: 105 (I believe)


-Intro- (No Guitar)



-Riff/Chorus-
Guitar1          
e|--------------------------------|----------------------------------|
B|--------------------------------|----------------------------------|
G|--------13--13--12-x-12-x-12-12-|-------13--13--12-x-12-x-12-12----|
D|--------14--14--12-x-12-x-12-12-|-------14--14--12-x-12-x-12-12----|
A|--------------------------------|----------------------------------|
E|--0--0--------------------------|-0--0-----------------------------|

e|--------------------------------|----------------------------------|
B|--------------------------------|----------------14-14-14-14-14-12-|
G|--------13--13--12-x-12-x-12-12-|----------------14-14-14-14-14-12-|
D|--------14--14--12-x-12-x-12-12-|----------------14-14-14-14-14-12-| repeat 
A|--------------------------------|----------------------------------|
E|--0--0--------------------------|-0--------------------------------|

Guitar2
e|-----------------------------------|
B|-----------------------------------|
G|--x-x-9-x-x-9-x-x-9-x-x-9-x-x-9-9--|
D|--x-x-x-x-x-x-x-x-x-x-x-x-x-x-x-x--| repeat 
A|--x-x-7-x-x-7-x-x-7-x-x-7-x-x-7-7--|
E|-----------------------------------|



-Verse Part 1- 

(No Guitar)



-Verse Part 2- (Starts when he says GOOD LOOKINNNN)
e|-----------------------------------|
B|-----------------------------------|
G|--x-x-9-x-x-9-x-x-9-x-x-9-x-x-9-9--|
D|--x-x-x-x-x-x-x-x-x-x-x-x-x-x-x-x--| repeat
A|--x-x-7-x-x-7-x-x-7-x-x-7-x-x-7-7--|
E|-----------------------------------|



-Chorus- 

(Play riff/chrous bit)



-Verse Part 1-



-Verse Part 2-



-Chorus- 



-Solo- 

I don't really believe in transcribing solos like this because there is so much room for improvisation.
Just make your own its alot more fun. I dont even play this solo the way he does it and that would take away
the originality of my version if I gave it all to you. Dont hate me!

**The Solo though is just bends and single notes in the 12-17 fret range on the g and b string.
Sound it out!**

 PS: Pretty sure the first bend is on the 15th fret of the b string



-Bass Interlude- 

Check out my tab on UG!



-Outro-
Guitar1
e|--------10-12~-----------------|--------10-12~----------------------|
B|--10-12-----------10-9-10-9----|--10-12-----------10-9-10-9---------|
G|----------------------------9--|----------------------------9-------|
D|-------------------------------|------------------------------------| repeat
A|-------------------------------|------------------------------------|
E|-------------------------------|------------------------------------|

Guitar2
e|--------------------|---------------------|---------------------|--------------------|
B|--------------------|---------------------|---------------------|--------------------|
G|-9-9-9--9-99-9--9-9-|-7-7-7--7--77-7--7-7-|---------------------|-9-9-9--9-99-9--9-9-|
D|-9-9-9--9-99-9--9-9-|-7-7-7--7--77-7--7-7-|-7-7-7--7--77-7--7-7-|-9-9-9--9-99-9--9-9-|
A|-7-7-7--7-77-7--7-7-|-5-5-5--5--55-5--5-5-|-7-7-7--7--77-7--7-7-|-7-7-7--7-77-7--7-7-|
E|--------------------|---------------------|-5-5-5--5--55-5--5-5-|--------------------|
Repeat Till Fade Out!



(Verse 1)
Aching, aching everywhere
I don't feel it, you don't care
Everyone's their father's sons
Feral youth and laser guns
Please don't send me off to war
That's not what my body's for
Maybe I was not born brave
Maybe I was born
Good looking
Showing everybody their bones
Hot cooking
Steaming ?????
?????
Biting on the tip of your tongue
?????
?????

(Chorus)
What the world could be
When you talk to me
Give me energy
Let it be
Together
For everyone
Let the ocean come
When we get in touch(?)
For the world's pleasure

(Verse 2)
If you're happy, raise your hand
Few five fingers(?), take a bow
Lawfully killed an English dirt(?)
Little hearts begin to hurt
New York city, cars and girls
Take a living, make a turn
Consciousness and capable
But it's not my mess
I'm too good looking
Showing everybody their bones
Hot cooking
Steaming ?????
?????
Biting on the tip of your tongue
?????
?????

(Chorus)
What the world could be
When you talk to me
Give me energy
Let it be
Together
For everyone
When the ocean comes
Baby, get on top
For the world's pleasure

(interlude)

(Chorus)
What the world could be
When you talk to me
Give me energy
Let it be
Together
For everyone
Let the ocean come
When we get in touch(?)
For the world's pleasure
(repeat)


************************************

| /   slide up
| \   slide down
| h   hammer-on
| p   pull-off
| ~   vibrato
| +   harmonic
| x   Mute note
| b   Bend
| pb  Pre-bend
| br  Bend release
| pbr Pre-bend release
| brb Bend release bend

************************************
Добавлено: 23.08.2014
Другие материалы по этой песне:
  • Аккорды и текст

Страница создана 19.03.2014
http://primanota.ru/peace/world-pleasure-chords.htm
Привет, Гость.
Предлагаем пройти революционный курс по гитаре.
Подарок от PrimaNota.Ru, забирай!