PrimaNota.ru - самый крупный в мире бесплатный архив песенных текстов, аккордов, табулатур и нот


Peace - O You - таба, бас-таба, видео

Регистрация Запомнить меня
Войти через:  Facebook Google Twitter Vk Yandex Mail.ru

Peace - O You - таба, бас-таба, видео

Печатать
Просмотров: 158
Peace - O You      (<--- TUnnnEE)
Tabbed by David Glass (<--Lad)

eNjoY Email complaints to www.IdontGiveADam.co.org

Not sure but I tried oK so allow the hate.
Gr8 song thou.
Strum however you damn well please.


Suggest:
Guitar 1: High gain/delay , cut low requency and mids to leave mostly high frequency
Guitar 2: Warm sound - lil bit of chorus to spice it up

(This song was loosely based on my life ask Harri)

Guitar 1
Riff:
|-----------------12----10-----8---8----8-----7------7----10---8-----7---7----7--------|
|-----------------12----10-----8---8----8-----7------7----10---8-----7---7----7--------|
|--9-------12-----12----10-----9---9----9-----7------7----10---9-----7---7----7----9---|
|--10------14----------------------------------------------------------------------10--|
|--------------------------------------------------------------------------------------|
|--------------------------------------------------------------------------------------|


Guitar 2 (Enters 0:08)
Riff:
|--------------------------------------|
|--------------------------------------|
|--14-12----12-------------------------|
|--------14----14-12-14-12----12-------|
|--------------------------15----15-12-|
|--------------------------------------|


BONUS ROUND:
Chords if you want to fly solo
|--5-------10-------3--------8-------7----|
|--5-------10-------3--------8-------7----|
|--5-------10-------4--------9-------7----|
|--7-------12-------5--------10------9----|
|--7-------12-------5--------10------9----|
|--5-------10-------3--------8-------7----|
Добавлено: 05.07.2015
Другие материалы по этой песне:
  • Аккорды и текст

Страница создана 05.07.2015
http://primanota.ru/peace/o-you-chords.htm
Привет, Гость.
Предлагаем пройти революционный курс по гитаре.
Подарок от PrimaNota.Ru, забирай!