PrimaNota.ru - самый крупный в мире бесплатный архив песенных текстов, аккордов, табулатур и нот


Peace - Last Christmas - бас-таба, видео

Регистрация Запомнить меня
Войти через:  Facebook Google Twitter Vk Yandex Mail.ru

Peace - Last Christmas - бас-таба, видео

Печатать
Просмотров: 94
-------------------------------------------------------------------------------
                             LAST CHRISTMAS - PEACE
-------------------------------------------------------------------------------
Tabbed by: Rebecca Dale
 
2013 Christmas cover of Last Christmas by Wham

G|-----------------------------------|
D|-----------------------------------|
A|-4-4-4-4-4-4-4-4-4-4-4-4-3-4-3-4---|
E|-----------------------------------|


G|-----------------------------------|
D|-----------------------------------|
A|-1-1-1-1-1-1-1-1-1-1-1-1-1-1-3-4-8-|
E|-------------------------1---------|


G|-----------------------------------|
D|-1-1-1-1-1-1-1---1-1-1-1-3-4-3-4---|
A|---------------1-------------------|
E|-----------------------------------|

G|-----------------------------------|
D|-----------------------------------|
A|---------------------------6-------|
E|-4-4-4-4-4-4-4-4--4--6--8----------|

PEACE4EVEREVER 
Добавлено: 05.07.2015
Другие материалы по этой песне:
  • Аккорды и текст

Страница создана 05.07.2015
http://primanota.ru/peace/last-christmas-chords.htm
Привет, Гость.
Предлагаем пройти революционный курс по гитаре.
Подарок от PrimaNota.Ru, забирай!