PrimaNota.ru - самый крупный в мире бесплатный архив песенных текстов, аккордов, табулатур и нот


Peace - Im A Girl - таба, бас-таба, видео

Регистрация Запомнить меня
Войти через:  Facebook Google Twitter Vk Yandex Mail.ru

Peace - Im A Girl - таба, бас-таба, видео

Печатать
Просмотров: 102
peace
i'm a girl
standard tunning

there's probably room for improvement so leave me any changes i need to make!

not sure about this 
e|-----------------------|
b|-999-1212-9-999-1212-9-|
g|-----------------------|
d|-----------------------|
a|-----------------------|
e|-----------------------|

riff1
e|------------|
b|------------|
g|----------7-|
d|-7-77-6-5-7-|
a|-7-77-7-5-5-|
e|-5-55-4-3---|

riff2
e|----------(5)-|
b|----------(7)-|
g|-9-99-7-9--7--|
d|-9-99-7-9--7--|
a|-7-77-5-7--5--|x3
e|--------------|

riff1, riff2, riff1

fill
e|-----|
b|-----|
g|-5br-|x8
d|-----|
a|-----|
e|-----|

play riff1 x2

fill

riff2, riff1 x2 fill

solo
play the 12th note with whammy bar bend inbetween (i think) 
(tremlo) wb=whammy bar
e|-----------------------------------------------------------|
b|-121212wb12121212wb12121212wb-1515151515/1717/1919191919wb-|
g|-----------------------------------------------------------|
d|-----------------------------------------------------------|
a|-----------------------------------------------------------|
e|-----------------------------------------------------------|

e|-/16161616-14141414-----------------------|    end on
b|--------------------17171717-151515-14-15-|x3 |-17wb-|
g|------------------------------------------|
d|------------------------------------------|
a|------------------------------------------|
e|------------------------------------------|

then just play riff2, riff1 till it ends
Добавлено: 29.11.2015
Другие материалы по этой песне:
  • Аккорды и текст

Страница создана 17.11.2015
http://primanota.ru/peace/im-a-girl-chords.htm
Привет, Гость.
Предлагаем пройти революционный курс по гитаре.
Подарок от PrimaNota.Ru, забирай!