PrimaNota.ru - самый крупный в мире бесплатный архив песенных текстов, аккордов, табулатур и нот


Peace - Gen Strange - бас-таба, видео

Регистрация Запомнить меня
Войти через:  Facebook Google Twitter Vk Yandex Mail.ru

Peace - Gen Strange - бас-таба, видео

Печатать
Просмотров: 52
-------------------------------------------------------------------------------
                             Gen Strange - Peace
-------------------------------------------------------------------------------

Tuning: Standard

Verse 1: Start at 00:17
G|--------|-------------------|------------------------------------------------|
D|---1-3--|-------------------|-------------1-3--------------------------------|
A|--------|--3--3-------0-1---|---3---3----------------------------------------| x2
E|--------|--------1----------|----------1-------------------------------------|

Pre Chorus
G|---------------------------------------------------------------------------|
D|-------1---1--0--1--1--0--3---3--0--3--3--0--------------------------------|
A|---------------------------------------------------------------------------| x3
E|---------------------------------------------------------------------------|

G|---------------------------------------------------------------------------|
D|-------1---1--0--1--1--0--3--------0--3--3---------------------------------|
A|---------------------------------------------------------------------------| 
E|---------------------------------------------------------------------------|

Chorus
G|---------------------------------------------------------------------------|
D|-------------------------------0--1----------------------------------1-3---|
A|---3--3--1-3--3----1--1--0-1---------------------0--1---3--3--1-3-3--------|
E|--------------------------------------1--1--0-1----------------------------|

G|-----------------------------------------------------------------------------|
D|-------------------------------0--1------------------------------------------|
A|---3--3--1-3--3---1--1--0-1-------------------------0--1----3--3--1--3--3----|
E|--------------------------------------1--1--0-1--1---------------------------|

Verse 2:
G|---------------------------------------------------------------------------|
D|---------------------------------------------------------------------------|
A|---3--3--------------------------------------------------------------------| x4
E|---------1-----------------------------------------------------------------|

G|---------|-------------|------------------|-------------|------------------------|
D|---1--3--|-------------|------------------|-------------|------------1-3---------|
A|---------|---3--3------|---3--3------0-1--|---3--3------|---3--3-----------------|
E|---------|---------1---|---------1--------|---------1---|---------1--------------|

Pre chorus 
Chorus

Bridge
G|---------------------------------------------------------------------------|
D|---------------------------------------------------------------------------|
A|---------------------------------------------------------------------------|
E|---3--------1------/8----------------3-----6-------1-----------------------|

Verse 1 x1
Chorus  x2


| /  slide up
| \  slide down
| h  hammer-on
| p  pull-off
| ~  vibrato
| +  harmonic
| x  Mute note
===============================================================================
Добавлено: 03.03.2016
Вам также может быть интересно:
Другие материалы по этой песне:
  • Аккорды и текст

Страница создана 03.03.2016
http://primanota.ru/peace/gen-strange-chords.htm
Привет, Гость.
Предлагаем пройти революционный курс по гитаре.
Подарок от PrimaNota.Ru, забирай!