PrimaNota.ru - самый крупный в мире бесплатный архив песенных текстов, аккордов, табулатур и нот


Peace - 1998 - таба, бас-таба, видео

Регистрация Запомнить меня
Войти через:  Facebook Google Twitter Vk Yandex Mail.ru

Peace - 1998 - таба, бас-таба, видео

Печатать
Просмотров: 118
Уроки эстрадного вокала в Санкт-Петербурге
-------------------------------------------------------------------------------
                             1998 - Peace
-------------------------------------------------------------------------------
Tabbed by: Jasper Ray
Instagram: jasperray12

Tuning: Standard

This guitar part comes in about 5 minutes into the song and is my favourite part
It may not be fully correct but sounds about right

e|---------------------------------------------------------------------------|
B|---------------------------------------------------------------------------|
G|-----------------4-----------------4---------------------------------------|
D|--6-9--------4-6---6-4-6-6-4---4-6---6-4-6-6-4------4---------6-4-6-4-----6|
A|------9-11--------------------------------------4-6---6-4-6-----------6-9--|
E|------------------------------------------------------------4--------------|

Thanks :)
Добавлено: 05.07.2015
Другие материалы по этой песне:
  • Аккорды и текст

Страница создана 14.08.2013
http://primanota.ru/peace/1998-chords.htm
Привет, Гость.
Предлагаем пройти революционный курс по гитаре.
Подарок от PrimaNota.Ru, забирай!