PrimaNota.ru - самый крупный в мире бесплатный архив песенных текстов, аккордов, табулатур и нот


Paws - Tulip - бас-таба, видео

Регистрация Запомнить меня
Войти через:  Facebook Google Twitter Vk Yandex Mail.ru

Paws - Tulip - бас-таба, видео

Печатать
Просмотров: 36
-------------------------------------------------------------------------------
                            Tulip - Paws
-------------------------------------------------------------------------------
Tabbed by: shadowjess2000

Intro:
G|-----------------------------------------------------------------------------------------|
D|-----------------------------------------------------------------------------------------|
A|----0-0-0----0-0-0----0-0-0--0-0-0-0-3-3-3-3----0-0-0-----0-0-0----0-0-0--0-0-0-0-3-3-3-3|
E|0--0-----0--0-----0--0----------------------0--0------0--0-----0--0----------------------|

G|-----------------------------------------------------------------------------------------|
D|-----------------------------------------------------------------------------------------|
A|----0-0-0----0-0-0----0-0-0--0-0-0-0-3-3-3-3----0-0-0-----0-0-0----0-0-0--0-0-0-0-3-3-3-3|
E|0--0-----0--0-----0--0----------------------0--0------0--0-----0--0----------------------|

G|-----------------------------------------------------------------------------------------|
D|-----------------------------------------------------------------------------------------|
A|----0-0-0----0-0-0----0-0-0--0-0-0-0-3-3-3-3----0-0-0-----0-0-0----0-0-0--0-0-0-0-3-3-3-3|
E|0--0-----0--0-----0--0----------------------0--0------0--0-----0--0----------------------|

Chorus:
G|---------------------------------------------------------------------------|
D|---------------------------------------------------------------------------|
A|---------------2[x8]---------------2[x8]---------------2[x8]---------------|
E|0[x8]4[x8]3[x8]-----0[x8]4[x8]3[x8]-----0[x8]4[x8]3[x8]--------------------|

G|---------------------------------------------------------------------------|
D|---------------------------------------------------------------------------|
A|---------------2[x8]-------------------------------------------------------|
E|0[x8]4[x8]3[x8]------------------------------------------------------------|

G|----------------------------------------------------------------------------------------------|
D|----------------------------------------2-2-2-2-2-----------------------------------------2--2|
A|3-3--2-2--3-3----2-2--3-3--2-2--3-3--2-2---------3-3--2-2--3-3--2-2-----3-3--2-2--3-3--2-2----|
E|-------------3--3---------------------------------------------------3--3----------------------|

Verse:
G|----------------------------------------------------------------------------------------|
D|----------------------------------------------------------------------------------------|
A|----0-0-0----0-0-0----0-0-0--0-0-0-0-3-3-3-3----0-0-0----0-0-0----0-0-0--0-0-0-0-3-3-3-3|
E|0--0-----0--0-----0--0----------------------0--0-----0--0-----0--0----------------------|

G|----------------------------------------------------------------------------------------|
D|----------------------------------------------------------------------------------------|
A|----0-0-0----0-0-0----0-0-0--0-0-0-0-3-3-3-3----0-0-0----0-0-0----0-0-0--0-0-0-0-3-3-3-3|
E|0--0-----0--0-----0--0----------------------0--0-----0--0-----0--0----------------------|

Chorus:
G|---------------------------------------------------------------------------|
D|---------------------------------------------------------------------------|
A|---------------2[x8]---------------2[x8]---------------2[x8]---------------|
E|0[x8]4[x8]3[x8]-----0[x8]4[x8]3[x8]-----0[x8]4[x8]3[x8]--------------------|

G|---------------------------------------------------------------------------|
D|---------------------------------------------------------------------------|
A|---------------2[x8]-------------------------------------------------------|
E|0[x8]4[x8]3[x8]------------------------------------------------------------|

G|----------------------------------------------------------------------------------------------|
D|----------------------------------------2-2-2-2-2-----------------------------------------2--2|
A|3-3--2-2--3-3----2-2--3-3--2-2--3-3--2-2---------3-3--2-2--3-3--2-2-----3-3--2-2--3-3--2-2----|
E|-------------3--3---------------------------------------------------3--3----------------------|

Bridge:
G|---------------------------------------------------------------------------|
D|---------------------------------------------------------------------------|
A|---------------------------------------------------------------------------|
E|0--0--0--0--0--0--0--0--0--0--0--0--0--0--0--0--0--------------------------|

Verse:
G|----------------------------------------------------------------------------------------|
D|----------------------------------------------------------------------------------------|
A|----0-0-0----0-0-0----0-0-0--0-0-0-0-3-3-3-3----0-0-0----0-0-0----0-0-0--0-0-0-0-3-3-3-3|
E|0--0-----0--0-----0--0----------------------0--0-----0--0-----0--0----------------------|

G|----------------------------------------------------------------------------------------|
D|----------------------------------------------------------------------------------------|
A|----0-0-0----0-0-0----0-0-0--0-0-0-0-3-3-3-3----0-0-0----0-0-0----0-0-0--0-0-0-0-3-3-3-3|
E|0--0-----0--0-----0--0----------------------0--0-----0--0-----0--0----------------------|

-End-

| /  slide up
| \  slide down
| h  hammer-on
| p  pull-off
| ~  vibrato
| +  harmonic
| x  Mute note
===============================================================================
Добавлено: 14.10.2015
Вам также может быть интересно:
Другие материалы по этой песне:
  • Аккорды и текст

Страница создана 14.10.2015
http://primanota.ru/paws/tulip-chords.htm
Привет, Гость.
Предлагаем пройти революционный курс по гитаре.
Подарок от PrimaNota.Ru, забирай!