PrimaNota.ru - самый крупный в мире бесплатный архив песенных текстов, аккордов, табулатур и нот


Pavement - Spit On A Stranger - текст песни, таба, видео

Регистрация Запомнить меня
Войти через:  Facebook Google Twitter Vk Yandex Mail.ru

Pavement - Spit On A Stranger - текст песни, таба, видео

Печатать
Просмотров: 162
Band: Pavement
Song: Spit on a Stranger
Album: Terror Twilight
Year: 1999

Intro
e||----------------------|----------------------||
B||------3---------3-----|-----3--------3----3--||
G||*---2---2-----2---0---|---2---0-------------*||
D||*-0-------------------|---------------------*||
A||------------2---------|----------------0-----||
E||----------------------|2----------3----------||

e|---------------------|----------------------|
B|-----3---------3-----|------3----------3----|
G|---2---2-----2---0---|--------0----------2--|
D|-0-------------------|---0----------2-------|
A|-----------3---------|------------0---------|
E|---------------------|3---------------------|

e|---------------------|--------------------|
B|-----3---------3-----|------3-----3-3-3-3-|
G|---2---2-----2---0---|--------0---2-2-2-2-|
D|-0-------------------|---0--------2-2-2-2-|
A|-----------3---------|------------0-0-0-0-|
E|---------------------|3-------------------|

e|----------------|
B|-2-2-2-2-2-2-2-2|
G|-2-2-2-2-2-2-2-2|
D|-2-2-2-2-2-2-2-2|
A|-0-0-0-0-0-0-0-0|
E|----------------|

Verse
e||----------------------|----------------------||
B||------3---------3-----|-----3--------3----3--||
G||*---2---2-----2---0---|---2---0-------------*||
D||*-0-------------------|---------------------*||
A||------------2---------|----------------0-----||
E||----------------------|2----------3----------||

e||----------------------|-----------------------||
B||------3---------3-----|------3----------3-----||
G||*---2---2-----2---0---|--------0----------2--*||
D||*-0-------------------|---0----------2-------*||
A||------------3---------|------------0----------||
E||----------------------|3----------------------||


Pre-Chorus


e|-2-2-2-2-2-2-2-2|-2-2-2-2-0-------|-2---------|2---|
B|-3-3-3-3-3-3-3-3|-3-3-3-3-0-------|-3---------|3---|
G|-4-4-4-4-4-4-4-4|-4-4-4-4-1-------|-4---------|2---|
D|-4-4-4-4-4-4-4-4|-4-4-4-4-0-------|-4---------|0---|
A|-2-2-2-2-0-0-0-0|-x-x-x-x-2-------|-x---------|----|
E|----------------|-3-3-3-3-0-------|-3---------|----|

e|-2-2-2-2-2-2-2-2|-2-2-2-2-0-------|-2---------|
B|-3-3-3-3-3-3-3-3|-3-3-3-3-0-------|-3---------|
G|-4-4-4-4-4-4-4-4|-4-4-4-4-1-------|-4---------|
D|-4-4-4-4-4-4-4-4|-4-4-4-4-0-------|-4---------|
A|-2-2-2-2-0-0-0-0|-x-x-x-x-2-------|-x---------|
E|----------------|-3-3-3-3-0-------|-3---------|

Chorus 1


e|-2-----0------|---------------|
B|-3-----0----3-|---------------|
G|-2-----1----0-|---------------|
D|-0-----0----0-|---------------|
A|-------2------|---------------|
E|-------0----3-|---------------|

e|-2-----0------|---------------|
B|-3-----0----3-|---------------|
G|-2-----1----0-|---------------|
D|-0-----0----0-|---------------|
A|-------2------|---------------|
E|-------0----3-|---------------|

Chorus 2

x6
e||--2-----0------|----------------||
B||--3-----0----3-|----------------||
G||*-2-----1----0-|---------------*||
D||*-0-----0----0-|---------------*||
A||--------2------|----------------||
E||--------0----3-|----------------||

Outro

X4
e||--2-0-2--0-2-0-2-2—-0--||-2-------||
B||--3---0----3-----------||-3-------||
G||*-2---1----0----------*||-2-------||
D||*-0---0----0----------*||-0-------||
A||------2----------------||---------||
E||------0----3-----------||---------||

(Intro)

(Verse)
However you feel
Whatever it takes
Whenever it's real
Whatever awaits
Whatever you need
However so slight
Whenever it's real
Whenever it's right

(Pre-Chorus)
I've been thinking long and hard about the things you said to me,
like a bitter stranger,
and now I see the long, the short, the middle and what's in between,
I could spit on a stranger,

(Chorus 1)
(pull me out)
you're a bitter stranger.
(pull me out)

(Verse)
Whatever you feel
Whatever it takes
Whenever it's real
Whatever awaits me
Whatever you need
However so slight
Wherever it leads
Whenever it's right

(Pre-Chorus)
Honey I'm a prize and you're a catch
and we're a perfect match,
like two bitter strangers,
and now I see the long,
the short of it and I can make it last,
I could spit on a stranger,

(Chorus 2)
(pull me out)
you're a bitter stranger,
(pull me out)
I could spit on a stranger,
(pull me out)
you're a bitter stranger.
(pull me out)
I could spit on a stranger,
(pull me out)
you're a bitter stranger.

(Outro)
I see the sunshine in your eyes,
I'll try the things you'll never try,
I'll be the one that leaves
you high...high...high
Добавлено: 04.07.2012
Другие материалы по этой песне:

Страница создана 03.03.2012
http://primanota.ru/pavement/spit-on-a-stranger-chords.htm
Привет, Гость.
Предлагаем пройти революционный курс по гитаре.
Подарок от PrimaNota.Ru, забирай!