PrimaNota.ru - самый крупный в мире бесплатный архив песенных текстов, аккордов, табулатур и нот


Pavement - Speak, See, Remember - текст песни, таба, видео

Регистрация Запомнить меня
Войти через:  Facebook Google Twitter Vk Yandex Mail.ru

Pavement - Speak, See, Remember - текст песни, таба, видео

Печатать
Просмотров: 96
Pavement - Speak,See,Remember

This is unfortunately not 100% accurate
but i couldnt find any tabs for this so i hope it
will act as a guide for anyone who wants to go
further and figure out more. i got a lot from the
live video on Slow Century, but still i couldnt get it perfect.
Please let me know if you have any improvements. Most of the parts are down
there so just listen to the song to fit it all together

              Nathan
----nevillebreville@hotmail.com----


INTRO
|-----------------------------------|
|-----------------------------------|
|-----------------------------------|
|-----0h2-0-------------------------|
|-0h3---------2-s8-7-5-7-5-7-5-s8\\\|
|-----------------------------------|


x4 (except the last time u dont play the 2nd half
ie,finish on 7h9 bit not 5h7 bit)
|-------------------------------------------|
|-------------------------------------------|
|-----7----7--------------------------------|
|--7h9--7h9--7-5-7--------------------------|
|------------------7--7\\------5----5-------|
|---------------------------5h7--5h7--5-3-0-|

...& instead
strum A barre chord and finish on open E
|---------------------|
|---------------------|
|-6-6-6-6-6-6-6-1-----|
|-7-7-7-7-7-7-7-2-----|
|-7-7-7-7-7-7-7-2-----
|-5-5-5-5-5-5-5-0-----|

then
  E3?    E     D#m       A
|-------------------------------------|
|-10----9-----7-7-7-------------------|
|-9-----9-----8-8-8-----6-6-6-6-6-6---|
|-9-----9-----8-8-8-----7-7-7-7-7-7---|
|-7-----7-----6-6-6-----7-7-7-7-7-7---|
|-----------------------5-5-5-5-5-5-0-|
Speak, See,  Remember  the crimes .......

  E3?    E     D#m       A (im confused about this,
                           live he plays this, but
                           on record it sounds like hes
                          fingerpicking Dm instead of A)
|--------------------------------------
|-10----9-----7-7-7-------5--5--5-----|
|-9-----9-----8-8-8--------6--6--6----|
|-9-----9-----8-8-8------7--7--7--7---|
|-7-----7-----6-6-6-------------------|
|-----------------------------------0-|
Dead-beat, december     theres blood in the .....


|-------------------
|-------5--5--5-----|
|--------6--6--6--8-|
|------7--7--7--7-9-|
|-----------------9-|
|-----------------7-|
                  yeah youre hangin around

|-----------------|
|-----------------|
|-6---7-7-7-7-7---|
|-7---7-7-7-7-7---|
|-7---5-5-5-5-5---|
|-5-------------0-|
      god loves you but ......

(back to main verse)

|-----------------------------------|
|-----------------------------------|
|-----------------------------------|
|---------------2--4--6----4--2-----|
|---2----4---4-------------------4--|
|-----------------------------------|
   pas-sion,and a lov-ing suggestion

|---------------------------------------------|
|---------------------------------------------|
|---------------------------------------------|
|------2--4---6--7--6--4--2--------------4--2-|
|-2--4------------------------2--2--4---------|
|---------------------------------------------|
gonna ......................................

play twice

Then:                           (a few times)
|------10-----10-----10-----------|
|-10h12--10h12--10h12--10-8-10----|
|------------------------------9-9|
|---------------------------------|
|---------------------------------|
|---------------------------------|
then:
|-12p10---12p10---12p10--12s14-10----|
|------10------10------10---------12-|
|------------------------------------|
|------------------------------------|
|------------------------------------|
|------------------------------------|

then back to "god loves you" bit:

  D    D   D   B   D     D   D   D    D    D  D
what could he do? what could he what could he do?

then theres a lot of improvisational stuff before going back
to the same chords as the verse but just faster
over the top something like this is played a lotta times
|---------------------------------|
|----17----17----17----19-----17--|
|------15----15----15----15-----15|
|--16----16----16----16----16-----|
|---------------------------------|
|---------------------------------|

and in between verses spiral stairs is playing distorted bits something like
|--------------------------------------|
|--------------------------------------|
|--------------------------------------|
|--------------------------------------|
|--7-7-7-7-7-7-7-6-6-6-6-6-9-9-9-9-9---|
|--------------------------------------|

|----------------------------------------------------------|
|----------------------------------------------------------|
|----------------------------------------------------------|
|----------------------------------------------------------|
|--7-7-7-7-7-7-7-6-6-6-6-6-9-9-9-9-9-11-11-11-11-9-9-9-11-9|
|----------------------------------------------------------|

and then it goes to both guitars with
|-----------------------------------|
|-----------------------------------|
|-----------------------------------|
|-----------------------------------|
|--s7-6-5---------s7-6-5------------|
|---------7-6-5-3--------7-6-5-3----|

and ends on the main riff/verse chords.

_________________________________________________________________
     
Добавлено: 25.10.2013
Другие материалы по этой песне:
  • Аккорды и текст

Страница создана 02.05.2012
http://primanota.ru/pavement/speak-see-remember-chords.htm
Привет, Гость.
Предлагаем пройти революционный курс по гитаре.
Подарок от PrimaNota.Ru, забирай!