PrimaNota.ru - самый крупный в мире бесплатный архив песенных текстов, аккордов, табулатур и нот


Pavement - So Stark Youre A Skyscraper - таба, видео

Регистрация Запомнить меня
Войти через:  Facebook Google Twitter Vk Yandex Mail.ru

Pavement - So Stark Youre A Skyscraper - таба, видео

Печатать
Просмотров: 102
Уроки эстрадного вокала в Санкт-Петербурге
-------------------------------------------------------------------------------
                SO STARK (YOU'RE A SKYSCRAPER) - The Pavement
-------------------------------------------------------------------------------
Tabbed by: Ankhe
Email: akari4@o2.pl

Tuning: DADGBE (to be honest, song was written in CGDGBE tuning, but I believe that 
detuning from standard one is easier, if to DADGBE. Just tune lower E two halftones down.)

intro:
  (I've been waiting here for, oh, so long)                               x2
   |     |     |     |     |                 |     |-3-| |-3-| |-3-| |-3-|
E|-------------------------------------------------------------------------|
B|-------------------------------------------------------------------------|
G|-------------------------------------------------------------------------|
D|-------------------------------------------------------------------------|
A|-------------------------------------------------------------------------|
D|-2-----0-----7-----5-----4-----------------4-----0-0-0-0-0-0-0-0-0-0-0-0-|

The second guitar comes in:
verse 1:
  (This is life...)                                                      x2
E|-------------------------------------------------------------------------|
B|-------------------------------------2-----------3-----------------------|
G|-------------------------------------------------------------------------|
D|-2-----------------------4-----------------------------------------------|
A|-------------------------------------------------------------------------|
D|-------------------------------------------------------------------------|
 (you may bend those notes slightly up)

verse 2:  
  (She's real debutant...)
  [A5]                                          
E|------------------------------------------------|
B|------------------------------------------------|  
G|------------------------------------------------|  
D|-----------------7-----------------------7------|  
A|---------------7---7-------------------7---7----| 
D|-7---7---7---7-------7---7---7---7---7-------7--| 
  [Bsus2]                                         
E|------------------------------------------------|  
B|------------------------------------------------|  
G|------------------------------------------------|  
D|-----11--11------11--11------11--11------11--11-|  
A|---9---9---9---9---9---9---9---9---9---9---9----|  
D|-9-----------9-----------9-----------9----------|  
  [G5]                                              
E|------------------------------------------------|  
B|------------------------------------------------|  
G|------------------------------------------------|  
D|-----------------5-----------------------5------|  
A|---------------5---5-------------------5---5----|  
D|-5---5---5---5-------5---5---5---5---5-------5--|  
  [A5]                                          
E|------------------------------------------------|
B|------------------------------------------------|  
G|------------------------------------------------|  
D|-----------------7-----------------------7------|  
A|---------------7---7-------------------7---7----| 
D|-7---7---7---7-------7---7---7---7---7-------7--| 
  [Bsus2]                                         
E|------------------------------------------------|  
B|------------------------------------------------|  
G|------------------------------------------------|  
D|-----11--11------11--11------11--11------11--11-|  
A|---9---9---9---9---9---9---9---9---9---9---9----|  
D|-9-----------9-----------9-----------9----------|

E|------------------------------------------------|  
B|------------------------------------------------|  
G|------------------------------------------------|  
D|------------------------------------------------|  
A|-5---5---5---5---0---3---5---5---5---5---0---3--|
D|-5---5---5---5---0---3---5---5---5---5---0---3--| 

E|------------------------------------------------------------|  
B|------------------------------------------------------------|  
G|------------------------------------------------------------|  
D|------------------------------------------------------------|  
A|-5---0---3---5---0---3---5---0---3---5---0---3---5---0---3--|  
D|-5---0---3---5---0---3---5---0---3---5---0---3---5---0---3--|

chorus:
   (she can't live...)
  [E5]        [B5]        [E5]  [F#5] [G5]  [A5]  [B5]  [D5]
E|------------------------------------------------------------|  
B|------------------------------------------------------------|  
G|-16----------11----------4-----6-----7-----9-----11----14---|  
D|-14----------9-----------2-----4-----5-----7-----9-----12---| 
A|------------------------------------------------------------|  
D|------------------------------------------------------------| 
  [E5]
E|------------------------------------------------------------|  
B|------------------------------------------------------------|  
G|-16--16--16--16--16--16--16--16--16--16--16--16--16--16--16-|
D|-14--14--14--14--14--14--14--14--14--14--14--14--14--14--14-|
A|------------------------------------------------------------|  
D|------------------------------------------------------------| 

then verse 1, verse 2, chorus again.
ending riffs:
  [G5]        [D5]  [C5]
E|----------------------------------------------|
B|----------------------------------------------|
G|----------------------------------------------|
D|-5-----5-----12----10----5-----5-----12----10-|
A|-5-----5-----12----10----5-----5-----12----10-|
D|-5-----5-----12----10----5-----5-----12----10-|

Thanks for watching. Comments/ratings appreciated.

===============================================================================
Добавлено: 06.07.2012
Другие материалы по этой песне:
  • Аккорды и текст

Страница создана 06.07.2012
http://primanota.ru/pavement/so-stark-youre-a-skyscraper-chords.htm
Привет, Гость.
Предлагаем пройти революционный курс по гитаре.
Подарок от PrimaNota.Ru, забирай!