PrimaNota.ru - самый крупный в мире бесплатный архив песенных текстов, аккордов, табулатур и нот


Pauw - Where Did You Say We Were Again - таба, видео

Регистрация Запомнить меня
Войти через:  Facebook Google Twitter Vk Yandex Mail.ru

Pauw - Where Did You Say We Were Again - таба, видео

Печатать
Просмотров: 35
PAUW - Where Did You Say We Were Again?
song: https://www.youtube.com/watch?v=WtxXveB9nJk
note: I couldn't understand the lyrics through the video, if anyone has them let me know.

MAIN RIFF (also played troughout the verses)
   F#m     A       Dmaj7   C#m     C       Bm      F       A
e|-----------------------------------------------------------------|
B|---------------9-7-----------------------------------------------|
G|-------------6-------6---9-------9---7-6-----6---5---4-5-6-------|
D|-----6-7---------------------------------9-----7-----------------|
A|-9---------------------------------------------------------------|
E|-----------------------------------------------------------------|

e|-----------------------------|
B|-----------------------------|
G|-----------------------------|
D|-----------------------------|
A|-------------0--2--4-20--1---|
E|-2--4--5--0------------------|

Am  \ 2x
Bb  /

BRIDGE PART
Am  \ 2x
Bb  /
Ebmaj7
Db

MAIN RIFF
   F#m     A       Dmaj7   C#m     C       Bm      F       A
e|-----------------------------------------------------------------|
B|---------------9-7-----------------------------------------------|
G|-------------6-------6---9-------9---7-6-----6---5---4-5-6-------|
D|-----6-7---------------------------------9-----7-----------------|
A|-9---------------------------------------------------------------|
E|-----------------------------------------------------------------|

e|-----------------------------|
B|-----------------------------|
G|-----------------------------|
D|-----------------------------|
A|-------------0--2--4-20--1---|
E|-2--4--5--0------------------|

Am  \ 2x
Bb  /

BRIDGE PART
Am  \ 2x
Bb  /
Ebmaj7
Db

BREAKDOWN
Db

MAIN RIFF (keys only)
   F#m     A       Dmaj7   C#m     C       Bm      F       A
e|-----------------------------------------------------------------|
B|---------------9-7-----------------------------------------------|
G|-------------6-------6---9-------9---7-6-----6---5---4-5-6-------|
D|-----6-7---------------------------------9-----7-----------------|
A|-9---------------------------------------------------------------|
E|-----------------------------------------------------------------|
Добавлено: 07.04.2016
Другие материалы по этой песне:
  • Аккорды и текст

Страница создана 07.04.2016
http://primanota.ru/pauw/where-did-you-say-we-were-again-chords.htm
Привет, Гость.
Предлагаем пройти революционный курс по гитаре.
Подарок от PrimaNota.Ru, забирай!