PrimaNota.ru - самый крупный в мире бесплатный архив песенных текстов, аккордов, табулатур и нот


Pauw - Shambhala - таба, видео

Регистрация Запомнить меня
Войти через:  Facebook Google Twitter Vk Yandex Mail.ru

Pauw - Shambhala - таба, видео

Печатать
Просмотров: 44
PAUW - Shambhala
song: https://www.youtube.com/watch?v=-7yGLGEkVo4

MAIN RIFF
e|-------------------------------------------------------------------|
B|-------------------------------------------------------------------|
G|-------------------------------------------------------------------|
D|-------------------------------------------------------------------| play these
A|-10--9-10/12-12---12-12---12-12---10--9-10/12-12---12-12---12-12---| two bars
E|-------------------------------------------------------------------| twice

e|-------------------------------------------------------------|
B|-------------------------------------------------------------|
G|-------------------------------------------------------------|
D|-------------10--10-10-9-7-/9---9-9--------------------------| play these
A|-10--9-10/12-------------------------12-10-/12--10-9---------| two bars
E|-------------------------------------------------------------| twice

e|--------------------------------------------------------------------------------------------------------|
B|--------------------------------------------------------------------------------------------------------|
G|--------------------------------------------------------------------------------------------------------|
D|--------------------------------------------------------------------------------------------------------|
A|-9------9-/10---10-10---10-10--10--12-10-\9-9---9-9---9-9---9-----9-/10---10-10---10-10--9-10-9---------|
E|----12--------------------------------------------------------12---------------------------------12-10--|

VERSE 1
Dmaj7   D
Take my hand
Dmaj7   D
Let's ascend
        Csus2 G/B  D
There's more     expanse

     Dmaj7 D
With eyes  closed
  Dmaj7  D
Kaleido- scope
     Csus2 G/B    D
Show us       the way
        Csus2 G/B
To Shambha-   la


MAIN RIFF


VERSE 2
Dmaj7       D
Float downstream
Dmaj7         D
Guided by the ship
      Csus2 G/B      D
We'll find     the unseen

Dmaj7     D
Enter the void
   Dmaj7      D
Surrounded by noise
    Csus2  G/B    D
And follow    the voice
        Csus2 G/B
To Shambha-   la


MAIN RIFF


BRIDGE RIFF (3:35-3:53)
e|-------------------------------------------------------|
B|---7hbr----------------------7hbr----------------------|
G|--------7--5---4-5-4--------------7--5---4-5-4-7fbr----|
D|---------------------5-4-------------------------------|
A|-------------------------5-----------------------------|
E|-------------------------------------------------------|

SECOND PART OF THE SONG
Bbmaj7    \ 3x
G         /

Drum enters
Bbmaj7    \ 4x
G         /

GUITAR SOLO
       Bbmaj7            G                    Bbmaj7            G
e|---------------------------------------------------------------------------------|
B|---------------------------------------------------------------------------------|
G|------------------5--4-5p4-------------------------------5--4-5p4/7---5p4-/7-----|
D|----------3/5-3------------5-----3--5------------3/5-3---------------------------|
A|---0-1------------------------------------0-1------------------------------------|
E|-3--------------------------------------3----------------------------------------|

        Bbmaj7                G                          Bbmaj7                G
e|-----------------------------------------------------------------------------------------------------|
B|---------------------13--12-13p12-------------------------------------13--12-13p12-/15---13-12-/15---|
G|----------10/12-10----------------12---12-10-12------------10/12-10----------------------------------|
D|----7-8----------------------------------------------7-8---------------------------------------------|
A|-10-----------------------------------------------10-------------------------------------------------|
E|-----------------------------------------------------------------------------------------------------|

         Eb                      Dm                                G
e|-----------------------------------------------------------------------------------------------|
B|------------------------11--10-11p10-----------------------------12------------12--12hbr-------|
G|-------------10/12-10------------------------------------10--12---------12---------------12----|
D|-10-12-13----------------------------12-----12-10-12---12--------------------------------------|
A|-----------------------------------------------------------------------------------------------|
E|-----------------------------------------------------------------------------------------------|

         Eb                      Dm                                G
e|-----------------------------------------------------------------------------------------15----|
B|------------------------11--10-11p10-----------------------------12------------12---15---------|
G|-------------10/12-10------------------------------------10--12---------12---------------------|
D|-10-12-13----------------------------12-----12-10-12---12--------------------------------------|
A|-----------------------------------------------------------------------------------------------|
E|-----------------------------------------------------------------------------------------------|

OUTRO
Bbmaj7     \ 4x, last time end on Bbmaj7
G          /


_______________________________________________________________________________________

CHORDS USED
   Dmaj7 Csus2 G/B Bbmaj7
e|---2-----0----3-----1---|
B|---2-----3----3-----3---|
G|---2-----0----0-----2---|
D|---0-----2----0-----3---|
A|---------3----2-----1---|
E|------------------------|
Добавлено: 08.09.2015
Другие материалы по этой песне:
  • Аккорды и текст

Страница создана 08.09.2015
http://primanota.ru/pauw/shambhala-chords.htm
Привет, Гость.
Предлагаем пройти революционный курс по гитаре.
Подарок от PrimaNota.Ru, забирай!