PrimaNota.ru - самый крупный в мире бесплатный архив песенных текстов, аккордов, табулатур и нот


Pauline En La Playa - Titubeas - таба, видео

Регистрация Запомнить меня
Войти через:  Facebook Google Twitter Vk Yandex Mail.ru

Pauline En La Playa - Titubeas - таба, видео

Печатать
Просмотров: 91
Уроки эстрадного вокала в Санкт-Петербурге
Song: Titubeas. Album: Nada como el hogar
Pauline en la playa
Luis García Barrachina  GarciaBarrachina@gmail.com
abujeronegro@hotmail.com


guitaarra
1                                                                         
B|---------------------------------------------------------------------|
G|---4---4---4----4---4------------4---4---4----4---4--------------|
D|---------------------------------------------------------------------|

                                                                                
   
guitarra 2
e|-----------------------------------------------------------------------|
B|----------------------------------------------------------------------|
G|----------------------------------------------------------------------|
D|----------------------------------------------------------------------|
A|-----------2-7--7p6--3--2--0-------------2-7--7p6--3-2-0--------|
E|--3--3h5----------------------3---3--3h5-------------------3-------|


guitarra 1  (Riff 1)
e|------------------------------------------------------------------------------
B|--------8---------------------8--------------------------8-------------------8
G|-4-5-7---7-5-4-------4-5-7---7-5-4-5-4-------4-5-7---7-5-4-----4-5-7---5-4-|

guitarra 2

B|--------------------3--------------------------3----------------------3-------
G|------------------4--------------------------4---------------------4----------
D|----------------5--------------------------5---------------------5------------

guitarra 1  (Riff 2)-

e|--7---7---7--8---8---8--7--7--7--8--8--8--7-------------------------|
B|---8---8---8--8---8---8--8--8--8--8--8--8---------------------------|
G|----7---7-------7---7------7--7-----7--7------------------------------|

fin de la introduccion

riff (durante toda la cancion este riff de fondo)

D|--5--5-4--------------|
A|-----------5--5-3-2---|
E|-----------------------|

riff (al final de cada verso)

B|----------3---|
G|--------4-----|
D|------5-------|


Pregunto y titubeas

Pregunto y titubeas

Ti-ti-tienes miedo

Ti-ti-ti-ti-tiritas

Te digo que te quiero

Te digo que te quiero

Te te pones nervioso

Te te pones a temblar

Riff1

Riff2

Han sido tantas veces

Han sido tantas veces

Tarta-ta-tamudeas

Ta-ta-ta-tarareas

Y tu siempre tan tonto

Y tu siempre tan tonto

Tan tonto que te amo

Tan tonta que te amare

Riff 1

Pregunto y titubeas

Pregunto y titubeas

Ti-ti-ti-tienes miedo

Ti-ti-ti-tiritas (bis)


Es asi de facil, con los punteos del principio se rellena casi toda
canción, los acordes no soy capaz de sacarlos si es q los tiene.


________________________________________________________________________________
     
Добавлено: 03.10.2013
Другие материалы по этой песне:
  • Аккорды и текст

Страница создана 03.10.2013
http://primanota.ru/pauline-en-la-playa/titubeas-chords.htm
Привет, Гость.
Предлагаем пройти революционный курс по гитаре.
Подарок от PrimaNota.Ru, забирай!