PrimaNota.ru - самый крупный в мире бесплатный архив песенных текстов, аккордов, табулатур и нот


Pauline En La Playa - Atlas - таба, видео

Регистрация Запомнить меня
Войти через:  Facebook Google Twitter Vk Yandex Mail.ru

Pauline En La Playa - Atlas - таба, видео

Печатать
Просмотров: 68
Cancion: Atlas , Artista: Pauline en la playa
Album: Tormenta de ranas
Luis Garcia Barrachina---> GarciaBarrachina@gmail.com
                           abujeronegro@hotmail.com

El fondo de la cancion lo hace una guitarra combinando tres arpegios.
Solo con escucharlo sabreis cuando va cada uno.

e|-----------------------------------------------------------------------------|
B|----------------------------0------------------------------------------------|
G|--------6---------------------------------------7----------------------------|
D|------7---7-------------7----7-------------7-----7-------------------------|
A|----5-------5---------5---------5--------5----------5----------------------|
E|------------------------------------------------------------------------------
|

Inicio
e|--------14------------14----------------------------------------------------|
B|----12---------12--12------------------------------------------------------|
G|---------------------------------------------------------------------------|
D|---------------------------------------------------------------------------|
A|---------------------------------------------------------------------------|
E|---------------------------------------------------------------------------|

Repaso sus palabras una y otra vez
e|----------------------------------14---------------------------------------|
B|-------------------12--------12--------------------------------------------|
G|---------------------------------------------------------------------------|
D|---------------------------------------------------------------------------|
A|---------------------------------------------------------------------------|
E|---------------------------------------------------------------------------|

mil interpretaciones y algo que no se

Y esto no hay quien lo aguante
e|---------------------------------------------------------------------------|
B|---------------------------------------------------------------------------|
G|--------------------------4--6--7------------------------------------------|
D|---------------------------------------------------------------------------|
A|---------------------------------------------------------------------------|
E|---------------------------------------------------------------------------|

Ni siquiera Atlas en su espalda
e|---------------------------------------------------------------------------|
B|----------------------------------------8s10-------------------------------|
G|---------------------------------6--7--------------------------------------|
D|---------------------------------------------------------------------------|
A|---------------------------------------------------------------------------|
E|---------------------------------------------------------------------------|

Ni siquiera                 el señor Sanson
e|------------------------------------------------------------------------------
-|
B|----------------8s10--------------------------8s10---------------------------|

G|-----------6-7---------------------------6-7---------6-7-----------6-7-6-7-|
D|------------------------------------------------------------7-----7-----------
|
A|------------------------------------------------------------------------------
-|
E|------------------------------------------------------------------------------
-|

B hay suerte esta semana

y llaaama      antes que yo
e|------------------------------------------------------------------------------
--|
B|-14b15--14---12--10--7-----7--8--8s10--8-7---------------------------------|
G|------------------------------------------------7-----------------------------
--|
D|------------------------------------------------------------------------------
--|
A|------------------------------------------------------------------------------
--|
E|------------------------------------------------------------------------------
---|

mis frases preparadas van al traste solo en un instante
e|------------------------------------------------------------------------------
-|
B|-------------------------------------------------------5-5-5-5s7--7-7--(bis)|
G|------------------------------------------------------------------------------
-|
D|------------------------------------------------------------------------------
-|
A|------------------------------------------------------------------------------
-|
E|------------------------------------------------------------------------------
-|

No hay manera               ni de insinuarme
e|------------------------------------------------------------------------------
|
B|-------------------------------------------------12--10--12--10-12s14--10--|
G|--------------10--4--7--------------11---7----------------------------------|
D|-----------------------------------------------------------------------------|

A|-----------------------------------------------------------------------------|

E|-----------------------------------------------------------------------------|
Doy gracias al encuentro

por casualidad
e|---------------------------------------------------------------------------|
B|----------------------8s10-------------------------------------------------|
G|----------------6--7-------------------------------------------------------|
D|---------------------------------------------------------------------------|
A|---------------------------------------------------------------------------|
E|---------------------------------------------------------------------------|

Y finjo indiferencia
 
         por   si   al  rato caigo inconsciente
e|---------------------------------------------------------------------------|
B|--------14b15-14-12-10----14b15-14-12--10-------7--8s10-8-7---------|
G|-------------------------------------------------------------------7-------|
D|---------------------------------------------------------------------------|
A|---------------------------------------------------------------------------|
E|---------------------------------------------------------------------------|

por si acaso cojo y me declaro
e|-----------------------------------------------------------------------------|

B|-----------------------------------------------------------------------------|

G|-------7--------------7------9---11---9---7---6---4---2-------------------|
D|-----------------------------------------------------------------------------|

A|-----------------------------------------------------------------------------|

E|-----------------------------------------------------------------------------|
e|---------------------------------------------------------------------------|
B|----------------------------8s10------------------------------------------|
G|---7-------7-----6---6-7-----------7------s6--4-------------------------|
D|------7p5-----7-----------------------7p5-------4-5h7------------------|
A|---------------------------------------------------------------------------|
E|---------------------------------------------------------------------------|

e|---------------------------------------------------------------------------|
B|------------------------8s10----------------------------------------------|
G|--7-------s6--4--6-7----------7-------s6--4-4-4--6--7--2-------------|
D|-----7p5-------------------------7p5-------------------------------------|
A|---------------------------------------------------------------------------|
E|---------------------------------------------------------------------------|

e|---------------------------------------------------------------------------|
B|---------------------------------------------------------------------------|
G|--6--7--7s9---11--12--12s14---------------------------------------------|
D|---------------------------------------------------------------------------|
A|---------------------------------------------------------------------------|
E|---------------------------------------------------------------------------|

y ya ni la paciencia juega a mi favor
e|---------------------------------------------------------------------------|
B|--------------------------------------------8s10--------------------------|
G|---------------------------------------6-7--------6--7-------------------|
D|--------------------------------------------------------7-----------------|
A|---------------------------------------------------------------------------|
E|---------------------------------------------------------------------------|

   Y esto no hay quien lo aguante

   Ni   siquiera Atlas en su espalda
e|-----------------------------------------------------------------------------|
B|-14b15-14-12-10---14b15-14-12-10-----14b15-14-12-10--14b15-14-12-10----7---|
G|-----------------------------------------------------------------------------|
D|-----------------------------------------------------------------------------|
A|-----------------------------------------------------------------------------|
E|-----------------------------------------------------------------------------|

   Ni siquiera... Ni siquiera..yo
     
Добавлено: 07.08.2013
Другие материалы по этой песне:
  • Аккорды и текст

Страница создана 07.08.2013
http://primanota.ru/pauline-en-la-playa/atlas-chords.htm
Привет, Гость.
Предлагаем пройти революционный курс по гитаре.
Подарок от PrimaNota.Ru, забирай!