PrimaNota.ru - самый крупный в мире бесплатный архив песенных текстов, аккордов, табулатур и нот


Paula Fernandes - No Precisa - таба, видео

Регистрация Запомнить меня
Войти через:  Facebook Google Twitter Vk Yandex Mail.ru

Paula Fernandes - No Precisa - таба, видео

Печатать
Просмотров: 159
Tom: G
Capotraste na 2ª casa           
Intro:

                    C       G
E|-----------------------------------------|
B|-5-3p2------------------3-2-----2--------|
G|-------4-2---2--------2-------2----------|
D|-----------6---2----4-------2-------2----|
A|------------------5----------------------|
E|--------------------------5-------5------|


         C       G               C       G
E|-----------------------------------------|
B|-------------3-------2-------2-------3-2-|
G|-----------2-------2-------2-------2---2-|
D|-----2---4-------2-------2-------4-----2-|
A|-2/4---5-----------------------5-------4-|
E|---------------5-------5---------------5-|


Primeira Parte:

Dedilhado da Primeira Parte:

   D/F#            C
E|-----------------------------------------|
B|-------5---------------3-------3---------|
G|-----4---------------2-------2-----------|
D|---2-------2-------4-------4-------------|
A|-------------2-4-5-------5---------------|
E|-4-------4-------------------------------|


   Em
E|-----------------------------------------|
B|-------2-------2-------2-------2---------|
G|-----2-------2-------2-------2-----------|
D|---4-------4-------4-------4-------------|
A|-----------------------------------------|
E|-2-------2-------2-------2---------------|


   C                G
E|-----------------------------------------|
B|-------3-------3-------2--------2--------|
G|-----2-------2-------2--------2----------|
D|---4-------4-------2--------2------------|
A|-5-------5-------------------------------|
E|-----------------4--------4--------------|


   D5(9)
E|-------2-------2-2h4---------------------|
B|-----5-------5---------------------------|
G|---4-------4-----------------------------|
D|-2-------2-------2-----------------------|
A|-----------------------------------------|
E|-----------------------------------------|


                  D/F#
Voce diz que não precisa
C                Em
Viver sonhando tanto
            C      G        D5(9)
Que vivo a fazer demais, por você

Continuação da Primeira Parte:
                D
Diz que não precisa
C9               Em7
A cada vez que canto
      C9       G      D
Uma canção a mais pra você

Refrão:
          C9
Mais tem que ser assim
     G
Pra ser de coração
      D              Em7
Não diga não precisa ah ah ahh

      C9
Tem que ser assim
   G
É seu meu coração
       D                G
Não diga não precisa ah ah ahh

(Voltam o ritmo e os acordes da continuação da Primeira Parte)
                   D
Eu já sonhei com a vida
C9             Em7
Agora vivo um sonho
              C9          G         D
Mas viver ou sonhar, com voce, tanto faz

               D
Não diga não precisa
C9               Em7
Eu digo que é preciso
            C9    G          D
A gente se amar demais, nada mais

Refrão:
          C9
Mais tem que ser assim
     G
Pra ser de coração
      D              Em7
Não diga não precisa ah ah ahh

      C9
Tem que ser assim
   G
É seu meu coração
       D                G
Não diga não precisa ah ah ahh

Solo:
E|---------------------------------------------------|
B|-----------------------------5---------------------|
G|-------2---2h4-2-----2---4/6-----------------------|
D|-2-2h4---4-------2h4---4---------------------------|
A|---------------------------------------------------|
E|---------------------------------------------------|



E|---------2-4---4-2-4-4--5-5------------------------|
B|-------2---5-5-5-5-5-5--4-7-7----------------------|
G|-6\4-2---------------------------------------------|
D|---------------------------------------------------|
A|---------------------------------------------------|
E|---------------------------------------------------|



E|----17-17-16-14-12-12----12------------------------|
B|----------------------12-12------------------------|
G|-18-------16-14-14-14------------------------------|
D|---------------------------------------------------|
A|---------------------------------------------------|
E|---------------------------------------------------|



E|---------------------------------------------------|
B|---7\5--14\12--9/10--------------------------------|
G|---------------------------------------------------|
D|-9-------------------------------------------------|
A|---------------------------------------------------|
E|---------------------------------------------------|


                D
Diz que não precisa
C9               Em7
A cada vez que canto
      C9       G      D
Uma canção a mais pra você

Refrão 2x:
          C9
Mais tem que ser assim
     G
Pra ser de coração
      D              Em7
Não diga não precisa ah ah ahh

      C9
Tem que ser assim
   G
É seu meu coração
       D                G
Não diga não precisa ah ah ahh
Добавлено: 27.11.2013
Другие материалы по этой песне:
  • Аккорды и текст

Страница создана 27.11.2013
http://primanota.ru/paula-fernandes/no-precisa-chords.htm
Привет, Гость.
Предлагаем пройти революционный курс по гитаре.
Подарок от PrimaNota.Ru, забирай!