PrimaNota.ru - самый крупный в мире бесплатный архив песенных текстов, аккордов, табулатур и нот


Paul Young - Don't Dream It's Over - аккорды и текст, видео

Регистрация Запомнить меня
Войти через:  Facebook Google Twitter Vk Yandex Mail.ru

Paul Young - Don't Dream It's Over - аккорды и текст, видео

Печатать
Просмотров: 106
Авторы музыки: Neil Finn
Авторы текста: Neil Finn
Don't Dream It's Over
Paul Young
Paul Young "Don't dream its over"

   Cadd9 Am  F   E   G   C   Bb
e:---0---0---1---0---1---0---1---:
B:---3---1---1---0---0---1---3---:
G:---0---2---2---1---0---0---3---:
D:---2---2---3---2---0---2---3---:
A:---3---0---3---2---2---3---1---:
E:-----------1---0---3-----------:

Some ways I Strum it:
   Cadd9                           Am
e:-------0--0----------0---------:-------0--0----------0---------:   ^ = up strum
B:-------3--3----------3---------:-------1--1----------1---------:   v = down strum
G:-0-----0--0--0-------0---------:-2-----2--2--2-------2---------:
D:-2-----------2-----------------:-2-----------2-----------------:
A:-3-----------3-----------------:-0-----------0-----------------:
E:-------------------------------:-------------------------------:
   v     ^  ^  v       v           v     ^  ^  v       v           
   1  and  2  and  3  and  4  and  1  and  2  and  3  and  4  and

   F                               E
e:---------1---------------1-----:---------0---------------0-----:   
B:---------1---------------1-----:---------0---------------0-----:  
G:---------2---------------2-----:---------1---------------1-----:
D:-3-----------3---3-------------:-2-----------2---2-------------:
A:-3-----------3---3-------------:-2-----------2---2-------------:
E:-1-----------1---1-------------:-0-----------0---0-------------:
   v       v   v   v       v       v       v   v   v       v      
   1  and  2  and  3  and  4  and  1  and  2  and  3  and  4  and


Cadd9                  Am
There is freedom within there is freedom without
F                               E
Try to catch the deluge in a paper cup
Cadd9                  Am
There's a battle ahead many battles are lost
F
But you'll never see the end of the road while 
E
you're traveling with me

F        G
Hey now, hey now
C             Am
Don't dream it's over
F        G
Hey now, hey now
C             Am
When the world comes in
F        G
They come, they come
C             Am
To build a wall between us
F                         G
But you know they won't win

Cadd9                Am
Now I'm towing my car there's a hole in the roof
F                                   E
my possessions are causing me suspicion but there's no proof
Cadd9                Am
in the paper today tales of war and of waste
F                                   E
but you turn right over to the T.V. page

F        G
Hey now, hey now
C             Am
Don't dream it's over
F        G
Hey now, hey now
C             Am
When the world comes in
F        G
They come, they come
C             Am
To build a wall between us
F                   G
But you know they won't win

Cadd9 Am F E
Cadd9 Am F E

Guitar Solo

F  C  F  C  
F  C  Bb

Cadd9                Am
Now I'm walking again to the beat of a drum
F                                   E
And I'm counting the steps to the door of your heart
Cadd9                Am
Only shadows appear barely clearing the roof
F                                   E
Get to know the feeling of liberation and release

F        G
Hey now, hey now
C             Am
Don't dream it's over
F        G
Hey now, hey now
C             Am
When the world comes in
F        G
They come, they come
C             Am
To build a wall between us
F                   G
But you know they won't win

F        G
Hey now, hey now
C             Am
Don't dream it's over
F        G
Hey now, hey now
C             Am
When the world comes in
F        G
They come, they come
C             Am
To build a wall between us
F                   G
But you know they won't win

F         G
No   ooooh 
C         Am
Don't let them win
F         G
Oh no nooo
C         Am
When the world comes in
F         G
Hey now, Hey now
C         Am
Build a wall between us
F         G
Hey now, Hey now
C         Am
Don't let them win
F         G
Hey now, Hey now 
C         Am
No no nooo
Добавлено: 11.06.2016
Другие материалы по этой песне:
  • Аккорды и текст

Страница создана 16.11.2014
http://primanota.ru/paul-young/dont-dream-its-over-chords.htm
Привет, Гость.
Предлагаем пройти революционный курс по гитаре.
Подарок от PrimaNota.Ru, забирай!