PrimaNota.ru - самый крупный в мире бесплатный архив песенных текстов, аккордов, табулатур и нот


Paul Williams - Somebody Super Like You - аккорды и текст, видео

Регистрация Запомнить меня
Войти через:  Facebook Google Twitter Vk Yandex Mail.ru

Paul Williams - Somebody Super Like You - аккорды и текст, видео

Печатать
Просмотров: 64
Somebody Super Like You
Paul Williams
Somebody super like you
Paul Williams

Tab by ForestEnt

Standard tuning

Intro

 Am         F    Bbm          Am          one two three four
--5--5-7-8--8-----6----6-8-9--12-------------|
---------------------------------------------|
---------------------------------------------|
---------------------------------------------|
---------------------------------------------|
---------------------------------------------|

switches to main riff
 
   Am                          G   F              G Am
   1       2       3       4       1
---5---------------------------3---1-----|follow throughout
---5---------------------------3---1-----|
---5---------------------------4---2-----|
---7---------------------------5---3-----|
---7---------------------------5---3-----|
---5---X-X----X-X-----X-X------3---1-----|


Am
We need a man that is simple perfection
 G       F
There's nothing that's harder to find
G Am
  Someone to lead us protect us and feed us
 G   F
And help us to make up our minds
Bbm                     Gb
We need a man that's sophisticated
 Ebm                      Bbm
Quiet and strong and well educated
  B            Em
Where to go ? What to do ?
                     F         G    Am
Could it be somebody    super like you ?


Bb
We pledge allegiance to his
  F
gracefulness and charming manners
Ab                     C
  With a voice that's both sides choice
        G                           Bb
He'll bring us to our knees in admiration
                       F                Ab
He is king of all who see and hear his perfect pitch that most surprises.
                                  G
When his time is come a stallion rises
Добавлено: 20.07.2013
Другие материалы по этой песне:
  • Аккорды и текст

Страница создана 20.07.2013
http://primanota.ru/paul-williams/somebody-super-like-you-chords.htm
Привет, Гость.
Предлагаем пройти революционный курс по гитаре.
Подарок от PrimaNota.Ru, забирай!